Guitar Tabs, Chords and Lyrics


Nowhere   Therapy






			Nowhere by THERAPY? from the album 'TROUBLEGUM'

Transcribed by Wayne Ellis e-mail address ellis_w_wayne@bt-web.bt.co.uk

Mute all chords throughout

Intro

   
E--------------|
B---3-p-2------|	Guitar 1: Play 16 times
G---4-p-2------|
D--------------|
A--------------|
E--------------|
E-----------------|-----------------|-----------------|-----------------|
B-3p2-3p2-3p2-3p2-|-3p2-3p2-3p2-3p2-|-3p2-3p2-3p2-3p2-|-3p2-3p2-3p2-3p2-|	Guitar 1: 
G-4p2-4p2-4p2-4p2-|-4p2-4p2-4p2-4p2-|-4p2-4p2-4p2-4p2-|-4p2-4p2-4p2-4p2-|	(play twice)
D-----------------|-----------------|-----------------|-----------------|
A-----------------|-----------------|-----------------|-----------------|
E-----------------|-----------------|-----------------|-----------------|
		  |		    |		      |			|
  A5		  | E5		    | F#5	      | D5		|
E-----------------|-----------------|-----------------|-----------------|
B-----------------|-----------------|-----------------|-----------------|	 Guitar 2:
G-----------------|-----------------|-----------------|-----------------|	(play twice)
D-2---------------|-----------------|-----------------|-7---------------|
A-0--0--0--0--0---|-2---------------|-4---------------|-5--5--5--5--5---|
E-----------------|-0--0--0--0--0---|-2--2--2--2--2---|-----------------|

* Mute all single picked notes heavily.
Verse 1

  E5		    F#5		      D5		N.C
E-----------------|-----------------|-----------------|-----------------|
B-----------------|-----------------|-----------------|-----------------|	 Guitar 2:
G-----------------|-----------------|-----------------|-----------------|	
D-----------------|-----------------|-7---------------|-6---------------|
A-2---------------|-4---------------|-5--5--5--5--5---|-5--5--5--5--5---|
E-0--0--0--0--0---|-2--2--2--2--2---|-----------------|-----------------|  

          Heaven    kicked you out

  E5		    F#5		      D5		N.C        X
E-----------------|-----------------|-----------------|-----------------|
B-----------------|-----------------|-----------------|-----------------|	 Guitar 2:
G-----------------|-----------------|-----------------|-----------------|	
D-----------------|-----------------|-7---------------|-6---------------|
A-2---------------|-4---------------|-5--5--5--5--5---|-5--5--5--/-9-\--|
E-0--0--0--0--0---|-2--2--2--2--2---|-----------------|----------/-9-\--|
							        slide and mute

       You wouldn't wear a tie

Verse 2

  C#5		    B5		      G5
E-----------------|-----------------|----------------------|
B-----------------|-----------------|----------------------| 	Guitar 2:
G-----------------|-----------------|----------------------|
D------6-------6--|------4-------4--|----------------------|
A--4---4---4---4--|--2---2---2---2--|-----5------5------5--|
E-----------------|-----------------|-3-3-3--3-3-3--3-3-3--|

Staring at some	   pictures by yourself

  C#5		    B5		      D5
E-----------------|-----------------|----------------------|
B-----------------|-----------------|----------------------| 	Guitar 2:
G-----------------|-----------------|----------------------|
D------6---6---6--|------4---4---4--|-----7------7------7--|
A--4---4---4---4--|--2---2---2---2--|-5-5-5--5-5-5--5-5-5--|
E-----------------|-----------------|----------------------|

Something that you  wanna have but    will never get    Going

Chorus

E-----------------|-----------------|-----------------|-----------------|
B-----------------|-----------------|-----------------|-----------------|	Guitar 1: 
G-4p2-4p2-4p2-4p2-|-4p2-4p2-4p2-4p2-|-4p2-4p2-4p2-4p2-|-4p2-4p2-4p2-4p2-|	(play twice)
D-----------------|-----------------|-----------------|-----------------|
A-----------------|-----------------|-----------------|-----------------|
E-----------------|-----------------|-----------------|-----------------|
		  |		    |		      |			|
  A5		  | E5		    | F#5	      | D5		|
E-----------------|-----------------|-----------------|-----------------|
B-----------------|-----------------|-----------------|-----------------|	 Guitar 2:
G-----------------|-----------------|-----------------|-----------------|	(play twice)
D-2---------------|-----------------|-----------------|-7---------------|
A-0--0--0--0--0---|-2---------------|-4---------------|-5--5--5--5--5---|
E-----------------|-0--0--0--0--0---|-2--2--2--2--2---|-----------------|

Nowhere		      		Going Nowhere			   (Going)

E-----------------|
B-----------------|	Guitar 2:
G-----------------|
D-----------------|
A----------/-9-\--|
E----------/-9-\--|
       Muted slide

Verse 3

  E5		    F#5		      D5		N.C
E-----------------|-----------------|-----------------|-----------------|
B-----------------|-----------------|-----------------|-----------------|	 Guitar 2:
G-----------------|-----------------|-----------------|-----------------|	
D-----------------|-----------------|-7---------------|-6---------------|
A-2---------------|-4---------------|-5--5--5--5--5---|-5--5--5--5--5---|
E-0--0--0--0--0---|-2--2--2--2--2---|-----------------|-----------------|  

         Get drunk  every night

E5		    F#5		      D5		N.C        X
E-----------------|-----------------|-----------------|-----------------|
B-----------------|-----------------|-----------------|-----------------|	 Guitar 2:
G-----------------|-----------------|-----------------|-----------------|	
D-----------------|-----------------|-7---------------|-6---------------|
A-2---------------|-4---------------|-5--5--5--5--5---|-5--5--5--/-9-\--|
E-0--0--0--0--0---|-2--2--2--2--2---|-----------------|----------/-9-\--|
							        slide and mute

        You can't   get drunk on life

Verse 4

  C#5		    B5		      G5
E-----------------|-----------------|----------------------|
B-----------------|-----------------|----------------------| 	Guitar 2:
G-----------------|-----------------|----------------------|
D------6-------6--|------4-------4--|----------------------|
A--4---4---4---4--|--2---2---2---2--|-----5------5------5--|
E-----------------|-----------------|-3-3-3--3-3-3--3-3-3--|

Shouting at the    world, you'll never change

  C#5		    B5		      D5
E-----------------|-----------------|----------------------|
B-----------------|-----------------|----------------------| 	Guitar 2:
G-----------------|-----------------|----------------------|
D------6---6---6--|------4---4---4--|-----7------7------7--|
A--4---4---4---4--|--2---2---2---2--|-5-5-5--5-5-5--5-5-5--|
E-----------------|-----------------|----------------------|

But its whats inside you've got to   re-arrange       Going

Chorus

E-----------------|-----------------|-----------------|-----------------|
B-----------------|-----------------|-----------------|-----------------|	Guitar 1: 
G-4p2-4p2-4p2-4p2-|-4p2-4p2-4p2-4p2-|-4p2-4p2-4p2-4p2-|-4p2-4p2-4p2-4p2-|	(play twice)
D-----------------|-----------------|-----------------|-----------------|
A-----------------|-----------------|-----------------|-----------------|
E-----------------|-----------------|-----------------|-----------------|
		  |		    |		      |			|
  A5		  | E5		    | F#5	      | *D5		|
E-----------------|-----------------|-----------------|-----------------|
B-----------------|-----------------|-----------------|-----------------|	 Guitar 2:
G-----------------|-----------------|-----------------|-----------------|	(play twice)
D-2---------------|-----------------|-----------------|-7---------------|
A-0--0--0--0--0---|-2---------------|-4---------------|-5--5--5--5--5---|
E-----------------|-0--0--0--0--0---|-2--2--2--2--2---|-----------------|

Nowhere		      		Going Nowhere			   (Going)

* when riff is played second time guitar 2 plays this measure, instead

  D5
E-----------------|
B-----------------|	Guitar 2:
G-----------------|
D-7-----7--7--7---|
A-5--5--5--5--5---|
E-----------------|
  

Guitar Solo

   E5     A5	      E5     A5	      E5     A5	 	 E5     A5
E-----------------|-----------------|-----------------|-----------------|
B-----------------|-----------------|-----------------|-----------------|	Guitar 1:
G--1-2-1-1/2-1-2--|--1-2-1-1/2-1-2-/|-4-2-1-1/2-1-2---|--1-2-1-1/2-1-2-/|
D-----------------|-----------------|-----------------|-----------------|
A-----------------|-----------------|-----------------|-----------------|
E-----------------|-----------------|-----------------|-----------------|
		  |		    |		      |			|
E-----------------|-----------------|-----------------|-----------------|
B-----------------|-----------------|-----------------|-----------------|	Guitar 2:
G-----------------|-----------------|-----------------|-----------------|
D-----------------|-----------------|-----------------|-----------------|
A---------0-------|--0------0-------|---------0-------|--0------0-------|
E--0--------------|-----------------|--0--------------|-----------------|
		  |		    |		      |			|
E-----------------|-----------------|-----------------|-----------------|
B-----------------|-----------------|-----------------|-----------------|	Guitar 3:
G-----------------|-----------------|-----------------|-----------------|
D--9tr----7tr-----|--7tr----6-------|--9tr----7tr-----|--7tr----6-------|
A-----------------|-----------------|-----------------|-----------------|
E-----------------|-----------------|-----------------|-----------------|
	  	  |		    |		      |			|
E-----------------|-----------------|-----------------|-----------------|
B-----------------|-----------------|-----------------|-----------------|	Guitar 4:
G-----------------|-----------------|-----------------|-----------------|
D---------7-------|--7------6-------|---------7-------|--7-------6------|
A--7------0-------|--0--------------|--7------0-------|--0--------------|
E--0--------------|-----------------|--0--------------|-----------------|
	

   E5     A5	      E5     A5	       E5     A5
E-----------------|-----------------|-----------------|-----------------------------|
B-----------------|-----------------|-----------------|-----------------------------|	Guitar 1:
G-4-2-1-1/2-1-2---|--1-2-1-1/2-1-2--|-4-2-1-1/2-1-2---|-13b-13-13-13b-13-13b-13-13b-|		
D-----------------|-----------------|-----------------|-----------------------------|
A-----------------|-----------------|-----------------|-----------------------------|
E-----------------|-----------------|-----------------|-----------------------------|
 Heaven kicked you out		    |Heaven kicked you out  		            |
E-----------------|-----------------|-----------------|-----------------------------|
B-----------------|-----------------|-----------------|-----------------------------|	Guitar 2:
G-----------------|-----------------|-----------------|-----------------------------|
D-----------------|-----------------|-----------------|---2-------2-------2-------2-|
A---------0-------|--0------0-------|---------0-------|-0-0---0-0-0---0-0-0---0-0-0-|
E--0--------------|-----------------|--0--------------|-----------------------------|
		  |		    |		      |	* Mute Heavily	            |
E-----------------|-----------------|-----------------|-----------------------------|
B-----------------|-----------------|-----------------|-----------------------------|	Guitar 3:
G-----------------|-----------------|-----------------|-----------------------------|
D--9tr----7tr-----|--7tr----6-------|--9tr----7tr-----|--0--2--4--6--7----9---11----|
A-----------------|-----------------|-----------------|-----------------------------|
E-----------------|-----------------|-----------------|-----------------------------|
  		  |		    |		      |  w  w  w  w  w    w w w     |
E-----------------|-----------------|-----------------|-----------------------------|
B-----------------|-----------------|-----------------|-----------------------------|	Guitar 4:
G-----------------|-----------------|-----------------|-----------------------------|
D---------7-------|--7------6-------|---------7-------|-----------------------------|
A--7------0-------|--0--------------|--7------0-------|-----------------------------|
E--0--------------|-----------------|--0--------------|-----------------------------|
		
			  ~ vib
E-----------------|-----------------|-----------------|-----------------|
B--13b---r13------|--11b--10--------|-----------------|-----------------|
G-----------------|-----------------|--5b--5r---------|-4--5-p4--2------|	Guitar 1:
D-----------------|-----------------|-----------------|-----------------|
A-----------------|-----------------|-----------------|-----------------|
E-----------------|-----------------|-----------------|-----------------|
		  |		    |		      |			|
  A5		  | E5		    | F#5	      | D5		|
E-----------------|-----------------|-----------------|-----------------|
B-----------------|-----------------|-----------------|-----------------|	 Guitar 2:
G-----------------|-----------------|-----------------|-----------------|	
D-2---------------|-----------------|-----------------|-7---------------|
A-0--0--0--0--0---|-2---------------|-4---------------|-5--5--5--5--5---|
E-----------------|-0--0--0--0--0---|-2--2--2--2--2---|-----------------|
		  |		    |		      |  		|
E-----------------|-----------------|-----------------|-----------------|
B-3p2-3p2-3p2-3p2-|-3p2-3p2-3p2-3p2-|-3p2-3p2-3p2-3p2-|-3p2-3p2-3p2-3p2-|	Guitar 3: 
G-4p2-4p2-4p2-4p2-|-4p2-4p2-4p2-4p2-|-4p2-4p2-4p2-4p2-|-4p2-4p2-4p2-4p2-|      (low in mix)	
D-----------------|-----------------|-----------------|-----------------|
A-----------------|-----------------|-----------------|-----------------|
E-----------------|-----------------|-----------------|-----------------|

			  ~ vib
E-----------------|-----------------|-----------------|-----------------|
B--13b---r13------|--11b--10--------|-----------------|-----------------|	 Guitar 1:
G-----------------|-----------------|--7---6----------|-7--6------------|
D-----------------|-----------------|-----------------|-----------------|
A-----------------|-----------------|-----------------|-----------------|
E-----------------|-----------------|-----------------|-----------------|
		  |		    |		      |      		|
  A5		  | E5		    | F#5	      | D5		|
E-----------------|-----------------|-----------------|-----------------|
B-----------------|-----------------|-----------------|-----------------|	 Guitar 2:
G-----------------|-----------------|-----------------|-----------------|	
D-2---------------|-----------------|-----------------|-7---------------|
A-0--0--0--0--0---|-2---------------|-4---------------|-5-----9-\-------|
E-----------------|-0--0--0--0--0---|-2--2--2--2--2---|-------9-\-------|							     
		  |		    |		      |      slide	|
E-----------------|-----------------|-----------------|-----------------|
B-3p2-3p2-3p2-3p2-|-3p2-3p2-3p2-3p2-|-3p2-3p2-3p2-3p2-|-3p2-3p2-3p2-3p2-|	 Guitar 3: 
G-4p2-4p2-4p2-4p2-|-4p2-4p2-4p2-4p2-|-4p2-4p2-4p2-4p2-|-4p2-4p2-4p2-4p2-|	(low in mix)
D-----------------|-----------------|-----------------|-----------------|
A-----------------|-----------------|-----------------|-----------------|
E-----------------|-----------------|-----------------|-----------------|
		  |		    |		      |			|
E-----------------|-----------------|-----------------|-----------------|
B-----------------|-----------------|-----------------|-----------------|	 Guitar 4:
G--10tr-----------|-10tr------------|-10tr------------|-10tr------------|
D-----------------|-----------------|-----------------|-----------------|
A-----------------|-----------------|-----------------|-----------------|
E-----------------|-----------------|-----------------|-----------------|
		  		    		       *picking stops at
		  		      		        the slide on gt2 

Verse 6

  C#5		    B5		      G5
E-----------------|-----------------|----------------------|
B-----------------|-----------------|----------------------| 	Guitar 2:
G-----------------|-----------------|----------------------|
D------6-------6--|------4-------4--|----------------------|
A--4---4---4---4--|--2---2---2---2--|-----5------5------5--|
E-----------------|-----------------|-3-3-3--3-3-3--3-3-3--|

Making up for 	   what you never had

  C#5		    B5		      D5
E-----------------|-----------------|----------------------|
B-----------------|-----------------|----------------------| 	Guitar 2:
G-----------------|-----------------|----------------------|
D------6---6---6--|------4---4---4--|-----7------7------7--|
A--4---4---4---4--|--2---2---2---2--|-5-5-5--5-5-5--5-5-5--|
E-----------------|-----------------|----------------------|

Losing every   	   single thing you've ever had		Going

Outro

E-----------------|-----------------|-----------------|-----------------|
B-----------------|-----------------|-----------------|-----------------|	Guitar 1: 
G-4p2-4p2-4p2-4p2-|-4p2-4p2-4p2-4p2-|-4p2-4p2-4p2-4p2-|-4p2-4p2-4p2-4p2-|	(play twice)
D-----------------|-----------------|-----------------|-----------------|
A-----------------|-----------------|-----------------|-----------------|
E-----------------|-----------------|-----------------|-----------------|
		  |		    |		      |			|
  A5		  | E5		    | F#5	      | D5		|
E-----------------|-----------------|-----------------|-----------------|
B-----------------|-----------------|-----------------|-----------------|	 Guitar 2:
G-----------------|-----------------|-----------------|-----------------|	(play twice)
D-2---------------|-----------------|-----------------|-7---------------|
A-0--0--0--0--0---|-2---------------|-4---------------|-5--5--5--5--5---|
E-----------------|-0--0--0--0--0---|-2--2--2--2--2---|-----------------|

Nowhere		      		Going Nowhere			   (Going)

E-----------------|
B-----------------|	Guitar 2:
G-----------------|
D-----------------|
A---------/-12-\--|
E---------/-12-\--|
       Muted slide

E-----------------|-----------------|-----------------|-----------------|
B-----------------|-----------------|-----------------|-----------------|	Guitar 1: 
G-4p2-4p2-4p2-4p2-|-4p2-4p2-4p2-4p2-|-4p2-4p2-4p2-4p2-|-4p2-4p2-4p2-4p2-|	
D-----------------|-----------------|-----------------|-----------------|
A-----------------|-----------------|-----------------|-----------------|
E-----------------|-----------------|-----------------|-----------------|
		  |		    |		      |			|
  A5		  | E5		    | F#5	      | D5		|
E-----------------|-----------------|-----------------|-----------------|
B-----------------|-----------------|-----------------|-----------------|	 Guitar 2:
G-----------------|-----------------|-----------------|-----------------|	(play twice)
D-2---------------|-----------------|-----------------|-7---------------|
A-0--0--0--0--0---|-2---------------|-4---------------|-5--5--5--5--5---|
E-----------------|-0--0--0--0--0---|-2--2--2--2--2---|-----------------|
		  |		    |		      |			|
E-----------------|-----------------|-----------------|-----------------|
B-----------------|-----------------|-----------------|-----------------|	 Guitar 3:
G-/-7---9---7-----|---6---7---6-----|-/-7---9---7-----|-9-/11--11-11-11-|
D-----------------|-----------------|-----------------|-----------------|
A-----------------|-----------------|-----------------|-----------------|
E-----------------|-----------------|-----------------|-----------------|
E-----------------|-----------------|-----------------|-----------------|
B-----------------|-----------------|-----------------|-----------------|	Guitar 1: 
G-4p2-4p2-4p2-4p2-|-4p2-4p2-4p2-4p2-|-4p2-4p2-4p2-4p2-|-4p2-4p2-4p2-4p2-|	
D-----------------|-----------------|-----------------|-----------------|
A-----------------|-----------------|-----------------|-----------------|
E-----------------|-----------------|-----------------|-----------------|
		  |		    |		      |			|
  A5		  | E5		    | F#5	      | D5	   *A5	|
E-----------------|-----------------|-----------------|-----------------|
B-----------------|-----------------|-----------------|-------------2---|	Guitar 2:
G-----------------|-----------------|-----------------|-------------2---|	
D-2---------------|-----------------|-----------------|-7-----------0---|
A-0--0--0--0--0---|-2---------------|-4---------------|-5---------------|
E-----------------|-0--0--0--0--0---|-2--2--2--2--2---|-----------------|
		  |		    |		      |* Let A5 ring out|
E-----------------|-----------------|-----------------|-----------------|
B-----------------|-----------------|-----------------|-----------------|	Guitar 3:
G-/-7---9---7-----|---6---7---6-----|-/-7---9---7-----|-9/11------------|
D-----------------|-----------------|-----------------|-----------------|
A-----------------|-----------------|-----------------|-------5-/-12-\--|
E-----------------|-----------------|-----------------|-------5-/-12-\--|
							     Muted Slide
	 
Notes

Key to TAB

	b  - bend a semitone
	bn - bend n semitones (i.e b2 bend a whole tone)
	p  - pulloff
	r  - release
	~  - vibrato

The guitar solo is probably the only stumbling block in the song. Theres a 
hell of a lot going off here and things get a little bit 'industrial' .... 
There are 4 guitar parts here. Some of the parts sound fairly dissonant and its 
really the relative mix levels which make it all work.
The bends around the 13th fret on the guitar solo aren't as neatly pitched as
indicated in the tab, there are microtonal bends which can't be really indicated 
just using tab - so use your ear with the tab as a guide.
There are 2 instances of tremelo picking in the guitar solo (indicated by tr).
The first instance occurs around the second 'heaven kicked you out' section,
the picking here has roughly the same rhythmic timing as guitar 4. The next 
instance occurs at the end of the guitar solo and is of the 'pick as fast as 
you can, Yngwie variety' with no rhythmic relationship to any of the other parts
- just keep it even.
The relative timings between guitar parts, shown above, are fairly accurate but
listen to the record to get things nailed.

I suppose I went a bit mad shoving all this stuff down - but what the hell.

Any comments, corrections, idle banter, requests .... feel free to e-mail me.

			ellis_w_wayne@bt-web.bt.co.uk



Important: The song above is NOT stored on the Chordie server. The original song is hosted at www.lindesign.se. Chordie works as a search engine and provides on-the-fly formatting. Chordie does not index songs against artists/composers will. To remove this song please click here.

This song is displayed as text-only. Transposing and tuning is only available for chordpro-songs.

Login - add to songbook

Rating click stars to rate

Layout
Accuracy

SHARE PAGE  




You need to log in to post comments