Chordie logo

Crawl away   Tool








Note: I am NOT the transcriber of these songs, I am just reposting it as 
someone else had requested it. The name of those who figued out these 
SONG 5 Crawl Away

Crawl Away
----------
by Tool
From Undertow

Normal tuning

e---------------------------------|
b---------------------------------|
g---------3-----6-------3-----3---| X 3
D-2/4-4-4-----4-----4-4-----4---4-|
A---------------------------------|
E---------------------------------|

|---------------------------------|
|---------------------------------|
|---------3-----6B(7)---P0--------|
|-2/4-4-4-----4-------------------|
|---------------------------------|
|---------------------------------|

|-----------------------------------------------------------------|
|-----------------------------------------------------------------|
|-----------------------------------------------------------------|
|-----------------------------------------------------------------|
|-4(4)4---4----4--4--4--4-4-4-------------------------------------|
|-0H2-2-0-2--0-2--2--2--2-2-2-------------------------------------|
"Crawl Away"  by Tool     from _Undertow_
Transcribed by Brian G. Smith  

Notation:
s = slide, h = hammeron, p = pulloff, b = bend, r = release
~ = vibrato, x = muffle, * = pinch harmonic

Intro
   < Repeat this measure three times >
g |------|---------3-----6-------3-----3-0-|---------3-----6/7---\---0-------|
d |-0----|-2/4-4-4-----4-----4-4-----4-----|-2/4-4-4-----4--b----p-----------|
a |------|--s------------------------------|---------------------------------|
e |------|---------------------------------|---------------------------------|
           1       2       3       4         1       2       3       4

Riff A:

g |---------------------------------|---------------------------------|
d |--h------------------------------|--h------------------------------|
a |-4-4-----4-----4---4---4-----4---|-4-4-----4-----4---4---5-----5---|
e |-0/2-2-0-2---0-2---2---2---0-2-0-|-0/2-2-0-2---0-2---2-------------|
    1       2       3       4         1       2       3       4

g |---------------------------------|---------------------------------|
d |--h------------------------------|--h------------------------------|
a |-4-4-----4-----4---4---4-----4---|-4-4-----4-----4---4-----5-4-2~--|
e |-0/2-2-0-2---0-2---2---2---0-2-0-|-0/2-2-0-2---0-2---2---0---------|
    1       2       3       4         1       2       3       4

Repeat Riff A, then play Riff B:

g |---------------------------------|---------------------------------|
d |-9-------9-----9---9---9---------|--h------------------------------|
a |-7-------7-----7---7---7---------|-4-4-----4-----4---4---5-----5---|
e |-----0-0-----0-------------0-0-0-|-0/2-2-0-2---0-2---2-------------|
    1       2       3       4         1       2       3       4

g |---------------------------------|---------------------------------|
d |-9-------9-----9---9---9---------|-11------11-----b-----r----------|
a |-7-------7-----7---7---7---------|-9---9-9-9---9-9/10~--\--9~------|
e |-----0-0-----0-------------0-0-0-|---------------------------------|
    1       2       3       4         1       2       3       4

Short lead over Riff A (played by bass):

g |-6---6~--6~--x-4~------------x---|-4/6-6~--6~--x-4~------------x---|
d |---------------------------------|--h------------------------------|
    1       2       3       4         1       2       3       4

g |-4/6-6~--6~--4-6*/7--\---6---x---|-4/6-6~--6~--x--b----r-----------|
d |--h--------------b---r-----------|--h------------4/5----\--4~------|
    1       2       3       4         1       2       3       4

Verse:

Riff A, bass only

    Crawled away from me, slipped away from me
    Tried to keep you home, but there was nothing I could say

Guitar enters, playing root notes with bass

    Slid away from me, crept away from me
    Tried to keep you down, but there was nothing I could say

Riff A, full blast

    What you're tryin' to say is you don't want to play
    What you want and what you need don't mean that much to me

Chorus:

Riff C (time sig. changes to 9/8 - watch out!)

g |-------2-----5-----4-----------------|
d |-4-----2-----5-----4-----------------|
a |-4-----0-----3-----2-----2-2-2-2-2-2-|  

Important: The song above is NOT stored on the Chordie server. The original song is hosted at www.lindesign.se. Chordie works as a search engine and provides on-the-fly formatting. Chordie does not index songs against artists/composers will. To remove this song please click here.

This song is displayed as text-only. Transposing and tuning is only available for chordpro-songs.

Login - add to songbook

Rating click stars to rate

Layout
Accuracy

SHARE PAGE  

You need to log in to post comments