Rescue me

Y & T


Rescue Me by Y & T
transcribed by Rob Schenk and Chuck Lin mcb1@violet.berkeley.edu off the album, Earthshaker or Best of Y&T
notation: brp - bend and release and then pull off br - bend and release bv - bend and vibrato h - hammer on p - pull off /= slide all bends one step unless noted as 1/2
normal tuning
acoustic intro
---------------------0-------0------------------------------------ -----0-------0---------0-------0-----0-------0-------0-------1-0-- ---5---5---5---5---4-------4-------5---5---5-------2---2---1------ -7-------7-------5-------5-------4-------4-----4-3-------2-------- ---------------------------------------------------------------- ----------------------------------------------------------------
intro lead
----------------------15-12h15p12----12------12-13-12h13p12----12- ----12-13h15/17-15-17-------------15----15br----------------15---- -14--------------------------------------------------------------- ------------------------------------------------------------------ ------------------------------------------------------------------ ------------------------------------------------------------------
----------------------------------------17-17-19-20-19-20b-20bv---- -15-13-12-13-12-------------------17-20--------------------------- ----------------12-12h14-------17--------------------------------- ----------------------------19------------------------------------ ------------------------------------------------------------------ ------------------------------------------------------------------
1/2 1/2 1/2 1/2 -20br-19br-19b-19brp17------------------- ----------------------------------------- ----------------------19brp17------------ ----------------------------------------- ----------------------------------------- -----------------------------------------
main rhythm/chorus ------------------------------------------------------------------ ------------------------------------------------------------------ --------------------------------------7---5----------------------- -2----7-7-7-7---7-----5-5-5-5---5-----7---5---2-----7-7-7-7---7--- -2----7-7-7-7---7-----5-5-5-5---5-----5---3---2-----7-7-7-7---7--- -0----5-5-5-5-0-5-----3-3-3-3-0-3-------------0-----5-5-5-5-0-5---
verse
----------------------------------------- ----------------------------------------- ----------------------------------------- -7---------------7----------------------- -7---------------7----------------------- -5-/3-/2-/1-0----5--/3-/2-/1-0-----------
rhythm during solo
-------------------------------------------------- -------------------------------------------------- -7-------------7-----2-2---2-2------------2-2--2-2-- -7------7------7-----2-2---2-2------------2-2--2-2-- -5------7------5-----0-0---0-0---5-3-2----0-0--0-0-- --------5-------------------------------3---------
-------------------------------------------------- -------------------------------------------------- -7-------------7-----2-2---2-2------------2-2--2-2-- -7------7------7-----2-2---2-2------------2-2--2-2-- -5------7------5-----0-0---0-0---5-3-2----0-0--0-0-- --------5-------------------------------3---------
-------------------------------------------------------- -------------------------------------------------------- -7-----------7------------------------------------------ -7-----7-----7----3-3-3-3-3-3-3-3---2-2-2-2---2--5--7--- -5-----7-----5----3-3-3-3-3-3-3-3---2-2-2-2---2--5--7--- -------5----------1-1-1-1-1-1-1-1---0-0-0-0---0--3--5---
solo
-------------------------------------------------------------------- -----12-13-15v-15brp13-15b-15bv-15brp13-12h15p12h15----------------- -/14-------------------------------------------------9h12p9--------- ------------------------------------------------------------9h12p9-dip bar -------------------------------------------------------------------- --------------------------------------------------------------------
----------------------------------------------------- ----12-13-15v-15brp13-15b-15bv--15brp13-15brp13------ -14----------------------------------------------14v- ----------------------------------------------------- ----------------------------------------------------- -----------------------------------------------------
----------------------------------------------------------------------- -----12-13-15v-15brp13-15b-15bv-15brp13-12h15p12h15v------------------- -/14-------------------------------------------------9h12p9------------ ------------------------------------------------------------9h12p9-dip- ----------------------------------------------------------------------- -----------------------------------------------------------------------
---------------------------------------------------- ----12-13-15v-15brp13-15b-15bv--17h20p17-20b-20bv--- -14------------------------------------------------- ---------------------------------------------------- ---------------------------------------------------- ----------------------------------------------------
----19-20-22v-22brp20-22b-22bv-22brp20-19h22p19h22v---------- -22-------------------------------------------------17h20p17- ------------------------------------------------------------- ------------------------------------------------------------- ------------------------------------------------------------- -------------------------------------------------------------
------------------19-20-22v-22-20-22b-22-22brp20-20b-20bv- --------------22------------------------------------------ -16h19p16-dip--------------------------------------------- ---------------------------------------------------------- ---------------------------------------------------------- ----------------------------------------------------------
--------------------------------------------------- -----20-22-22---p20v----------20-22-22---p20v------ -/21-----------------21-19/21-----------------21--- --------------------------------------------------- --------------------------------------------------- ---------------------------------------------------
--------------------------------------------------- -----17h20p17----17-------15----------------------- -/19----------19----19\17-------------------------- --------------------------------------------------- --------------------------------------------------- ---------------------------------------------------
outro
---------------------0-------0------------------------------------0-5- -----0-------0---------0-------0-----0-------0-------0-------1-0--0-5- ---5---5---5---5---4-------4-------5---5---5-------2---2---1------1-5- -7-------7-------5-------5-------4-------4-----4-3-------2--------2-7- ---------------------------------------------------------------------- ----------------------------------------------------------------------













variations - click chord images
Transpose chords:
Tuning:
Cool service:
View: Size:
A  A  A
Rating:
Layout:
  • Currently 0/5 Stars.
  • 1
  • 2
  • 3
  • 4
  • 5
 
Accuracy:
  • Currently 2.8/5 Stars.
  • 1
  • 2
  • 3
  • 4
  • 5
 
click stars to rate
Chordie recommends:
Get acoustic guitar lessons and electric guitar lessons at JamPlay.com
Songbook:
Login to add this song to your songbook
Support the artist
Preview/buy this song
MSN Music
Why this non-profit ad?

 
login to add comments/video/corrections