Guitar Tabs, Chords and Lyrics


Owner of a lonely heart   Yes






			OWNER OF A LONELY HEART
				YES
The riff i think you all know is:

--------------------
--------------------
--------------------
--2---4-4--5--7-----
--2---4-4--5--7(slide down)
--0---2-2--3--5-----

add lots of distortion and stuff
i like to play with pick slides!(as if you care though, eh?)
i don't know the muted part for sure, but this is what i got...

-------------------
  3---0--5-3-------    
-------------2-----
---------------2-4-
0---0--------------
-------------------

repeated over and over.


Also, i have a little bit from LONG DISTANCE RUNAROUND at the beginning.

-----------15-12----------
---------15-----12-------
-------15---------12-----
--14s15-------------12-14
-------------------------
-------------------------

       repeat with this instead ------------------------
		of the 14       --17---16---14---12-----
                                ----15---15---15---13---
	                        ------------------------
	                        ------------------------
                                ------------------------

okay, so i admit the followup part is a little off, but hey, it still
sounds pretty nifty.
//////////////////////////////////////////////////////////
/ Jody O'Halloran        You ask em, "Where's my motor,  /
/                       "Well, it was eaten by snakes... /
/                       While your children is sleepin'  /
/                       Yer puppy is crappin - Zappa ->Flakes
////////////////////////////////////////////////////////// 


Important: The song above is NOT stored on the Chordie server. The original song is hosted at www.lindesign.se. Chordie works as a search engine and provides on-the-fly formatting. Chordie does not index songs against artists/composers will. To remove this song please click here.

This song is displayed as text-only. Transposing and tuning is only available for chordpro-songs.

Login - add to songbook

Rating click stars to rate

Layout
Accuracy

SHARE PAGE  




You need to log in to post comments