Guitar Tabs, Chords and Lyrics


Raise My Rent  David Gilmore

    [Em9]                                                                   
e-|-----------------------------|
B-|---------0----------3--------|
G-|------------0----------0-----|
D-|------2--------2/4--------4--|
A-|-----------------------------|
E-|---0-------------------------|

RIFF 2:
e-|---------------3-----------|
B-|---------1--------1-----1--|
G-|------2-----2--------2-----|
D-|---------------------------|
A-|---0-----------------------|
E-|---------------------------|

or
e-|---------------3-----------|
B-|------------0-----0--------|
G-|---------5-----------5-----|
D-|------4-----------------4--|
A-|---0-----------------------|
E-|---------------------------|

RIFF 3:
e-|---------------3-----------|
B-|------------1-----1--------|
G-|---------2-----------2-----|
D-|------0-----------------0--|
A-|---0-----------------------|
E-|---------------------------|

or
e-|-----3--------0------------|
B-|--------0--------2---------|
G-|--------------------0------|
D-|-----------4-----------4---|
A-|--0------------------------|
E-|---------------------------|

ORDER:
Riff 1 - twelve times (drums enter between 4th and 5th)
Riff 2 - three times
Riff 3 - once
Riff 1 - four times*
*After the fourth time you play the main riff strum an Em chord a
couple of times and begin everything over again only with the lead
guitar this time. You'll notice in the song that once the lead kicks
in, at times the main riff fades out and its only the drums and the
lead, but rhythm kicks back in later

Important: The song above is NOT stored on the Chordie server. The original song is hosted at www.pinkfloyd-co.com. Chordie works as a search engine and provides on-the-fly formatting. Chordie does not index songs against artists'/composers' will. To remove this song please click here.

Text color:
Chord color:
Chord grids: 
Font size:    
Page size: 

Em9
variations - click chord images

Login - add to songbook

Transpose chords

Tuning

Rating click stars to rate

Layout
Accuracy

SHARE PAGE  




You need to log in to post comments