"yes"; ?> Money by Pink Floyd - guitar chords, guitar tabs and lyrics - chordie

Money

Pink Floyd

e-|---------------------------------------||

B-|---------------------------------------||

G-|-------4-------------------------------||

D-|----------4-----------------------0----||

A-|--2----------2---------------2---------||

E-|--------------------2---5b-------------||


 Bm7
 Money, get away
Get a good job with more pay and you're okay
Money, it's a gas
Grab that cash with both hands and make a stash
 F#m7
e-|----------------------------|-------------------------|
B-|----------------------------|-------------------------|
G-|----------------------------|-------------------------|
D-|---4----4----4--------------|--------------4----3b----|
A-|------------------4---------|---------4---------------|
E-|-----------------------2----|--5b---------------------|

New car, cav - i - ar, four star day - dream,
 EmBm7
e-|---------------------------------|--------------------------------------|
B-|---------------------------------|--------------------------------------|
G-|---------------------------------|-------4------------------------------|
D-|---2-----------------------------|-----------4--------------------------|
A-|-------------------0----2--0--5--|---2-----------2-------------2----5b--|
E-|--------0----3b------------------|--------------------2---5b------------|

think I'll buy me a foot - ball____________team
 Bm7
  Money, get back
I'm all right Jack keep your hands off of my stack
Money, it's a hit
Don't give me that do goody good bullshit
 F#m7Em
I'm in the high-fidelity first class travelling set
 Bm7
And I think I need a Lear jet
SAX SOLO
GUITAR SOLO
VERSE:
 Bm7
 Money, it's a crime
Share it fairly but don't take a slice of my pie
Money, so they say
Is the root of all evil today
 F#m7Em
 But if you ask for a raise it's no surprise that they're
 Bm
giving none away











Bm Bm7 Em F#m7
variations - click chord images
Transpose chords:
Tuning:
Cool service:
View: Size:
A  A  A
Rating:
Layout:
  • Currently 2.5/5 Stars.
  • 1
  • 2
  • 3
  • 4
  • 5
 
Accuracy:
  • Currently 2.7/5 Stars.
  • 1
  • 2
  • 3
  • 4
  • 5
 
click stars to rate
Chordie recommends:
Learn to play this song & others via video guitar lessons at JamPlay.com
Songbook:
Login to add this song to your songbook
Support the artist
Preview/buy this song
MSN Music
Why this non-profit ad?

 
login to add comments/video/corrections

snwyvern (report comment to admin):
http://www.pinkfloyd-co.com/band/tab/dsotm/chd_dark-money.txt

tab portion poorly formatted, (extra spaces)

chords not exactly right?

24.9.243.98
lukebass (report comment to admin):
Take all the 7ths off. example (instead of Bm7 just play Bm) It sounds much better.