Chordie logo


Baby Lemonade  Syd Barrett

INTRO:
+----0----2-----3----2------------0----2------|-3-2-0-------------------+
+--0---0----0-0---0----0-0-r--0-----0----0-0--|-0-0-0-------------------+
+--4----4----4-----4----4--e--2------4----4---|-4-4-4-------------------+  1
+--------------------------s------------------|-------------------------+
+--------------------------t------------------|-------------------------+
+---------------------------------------------|-------------------------+
+------0----2-----3----2----------0----2------|-3-2-4/5-----------------+
+--0-----0----0-0---0----0-0-r--0---0----0-0--|-0-0-0-------------------+
+--2/4----4----4-----4----4--e--2----4----4---|-4-4-4-------------------+  2
+----------------------------s----------------|-------------------------+
+----------------------------t----------------|-------------------------+
+---------------------------------------------|-------------------------+
+-5-3-0-----------------------------------------------------------------+
+-------5-3-0-----------------------------------------------------------+
+-------------4-2-0--0--------------------------------------------------+  3
+------------------------0h2p0h2p0h2------------------------------------+
+----------------------2------------------------------------------------+
+-----------------------------------------------------------------------+
+----0-----0-------9-----|---0-----0-------8------|---------------------+
+------8-----8---8---8---|-----7-----7---7---7----|---------------------+
+--9-----9-----9-------9-|-8-----8-----8-------8--|---------------------+  4
+------------------------|------------------------|---------------------+
+------------------------|------------------------|---------------------+
+------------------------|------------------------|---------------------+

...and so on, moving down one fret at a time until...
+---0-----0-------4-----|-----------------------------------------------+
+-----3-----3---3---3---|-----------------------------------------------+
+-4-----4-----4-------4-|-----------------------------------------------+  5
+-----------------------|-----------------------------------------------+
+-----------------------|-----------------------------------------------+
+-----------------------|-----------------------------------------------+

repeat this last bar.
+---0-----0-------4-----|-----------------------------------------------+
+-----3-----3---3---3---|-----------------------------------------------+
+-4-----4-----4-------4-|-----------------------------------------------+  5
+-----------------------|-----------------------------------------------+
+-----------------------|-----------------------------------------------+
+-----------------------|-----------------------------------------------+
+-5-3-0-----------------------------------------------------------|-----+
+-------5-3-0-----------------------------------------------------|-----+
+-------------4-2-0-----------------------------------------------|-----+  6
+-------------------5-2-0--0-h2-p0---0-2------------0-h1-h2---0---|-----+
+----------------------------------2--------0-h1-h2---------2---1-|-----+
+-----------------------------------------3-----------------------|-----+

Next comes a chord progression which leads into the main part of the song,
which is one bar each of:
                    [A#]    [C#]    [A]   [G]   [D]   [A#]    [D#]    [A]        Then the verses...
Verse I
        [A#]In the sad town
        Cold [A]iron hands clap
        The [D]party of clowns out[A]side
        [D]Rain falls in grey far [A]away
        [A#]Please, [D#]please, baby lemon[A#]ade[G#]
Verse II:
In the evening
Sun going down when
The Earth streams in in the morning
Send a cage through the post
Make your name like a ghost
Please, please, baby lemonade
Verse III:
        [A#]I'm screaming
        [A]I met you this way
        You're [D]nice to me like [A]ice
        [G]In the clock they sent
        Through a [D]washing machine
        [A#]Come around, make it soon, [A]so alone
        [A#]Please, [D#]please, baby lemon[A#]ade[G#]
Then comes a guitar solo, which is played over the same chord
progression that leads into the verses (A# C# A ...).
After this, verses I and II are repeated, and then the
song closes with A# G# played repeatedly (in the fashion of
the end of the verse) with the intro chord progression played over it,
which fades out...
|----0----2-----3----2------------0----2------|-3-2-0-------------------
|--0---0----0-0---0----0-0-r--0-----0----0-0--|-0-0-0-------------------
|--4----4----4-----4----4--e--2------4----4---|-4-4-4-------------------
|--------------------------s------------------|-------------------------
|--------------------------t------------------|-------------------------
|---------------------------------------------|-------------------------
|------0----2-----3----2----------0----2------|-3-2-4/5-----------------
|--0-----0----0-0---0----0-0-r--0---0----0-0--|-0-0-0-------------------
|--2/4----4----4-----4----4--e--2----4----4---|-4-4-4-------------------
|----------------------------s----------------|-------------------------
|----------------------------t----------------|-------------------------
|---------------------------------------------|-------------------------
|-5-3-0----------------------------------
|-------5-3-0----------------------------
|-------------4-2-0--0-------------------
|------------------------0h2p0h2p0h2-----
|----------------------2-----------------
|----------------------------------------
|----0-----0-------9-----|---0-----0-------8------
|------8-----8---8---8---|-----7-----7---7---7----
|--9-----9-----9-------9-|-8-----8-----8-------8--
|------------------------|------------------------
|------------------------|------------------------
|------------------------|------------------------

continue moving down one fret at a time until...
|---0-----0-------4-----|---0-----0-------4-----|
|-----3-----3---3---3---|-----3-----3---3---3---|
|-4-----4-----4-------4-|-4-----4-----4-------4-|
|-----------------------|-----------------------|
|-----------------------|-----------------------|
|-----------------------|-----------------------|
|-5-3-0-----------------------------------------------------------
|-------5-3-0-----------------------------------------------------
|-------------4-2-0-----------------------------------------------
|-------------------5-2-0--0-h2-p0---0-2------------0-h1-h2---0---
|----------------------------------2--------0-h1-h2---------2---1-
|-----------------------------------------3-----------------------


Important: The song above is NOT stored on the Chordie server. The original song is hosted at www.pinkfloyd-co.com. Chordie works as a search engine and provides on-the-fly formatting. Chordie does not index songs against artists/composers will. To remove this song please click here.

Text color:
Chord color:
Chord grids: 
Font size:    
Page size: 

A A# C# D D# G G#
variations - click chord images

Login - add to songbook

Transpose chords

Tuning

Rating click stars to rate

Layout
Accuracy

SHARE PAGE  




You need to log in to post comments