"yes"; ?> Is There Anybody Out There? by Pink Floyd - guitar chords, guitar tabs and lyrics - chordie

Is There Anybody Out There?

Pink Floyd

from the album: The Wall (1979)

e-|-----------||
B-|-----------||
G-|-----2-----||  (x8)
D-|-----------||
A-|--0--------||
E-|-----------||


 AmAm/FAm/F#Am/F
e-|--------0---------|------0----------|------0----------|------0----------|
B-|------1---1-------|-----1---1-------|----1---1--------|----1---1--------|
G-|----2------2---2--|---2-------2---2-|---2------2---2--|---2-------2---2-|
D-|--2----------2----|-3-----------3---|-4----------4----|-3-----------3---|
A-|------------------|-----------------|-----------------|-----------------|
E-|------------------|-----------------|-----------------|-----------------|

 AmAm/DAm/CAm/BAm
e-|-------0--------0-|-------0-------0-|---------0-------|----------------|
B-|-----1--------1---|-----1-------1---|-------1---1-----|----------1-----|
G-|---2--------2-----|---2-------2-----|-----2-------2---|--------2---2---|
D-|-2--------0-------|-----------------|---2-----------2-|------2-------2-|
A-|------------------|-3-------2-------|-0---------------|----0-----------|
E-|------------------|-----------------|-----------------|----------------|

e-|------------0------|-----------------------------| B-|---------1---1-----|-----------1-----------------| G-|-------2-------2---|---------2---2---------------| D-|--2--2-----------2-|------2---------2----2-------| A-|0--0---------------|----0--------------0---------| E-|------------------|------------------------------|
 Am/FAm/F#Am/F
e-|--------0---------|-------0---------|-------0---------|-------0---------|
B-|------1---1-------|-----1---1-------|-----1---1-------|-----1---1-------|
G-|----2------2---2--|---2-------2---2-|---2------2---2--|---2-------2---2-|
D-|--2----------2----|-3-----------3---|-4----------4----|-3-----------3---|
A-|------------------|-----------------|-----------------|-----------------|
E-|------------------|-----------------|-----------------|-----------------|

F Am/D N.C. Am
e-|----------------0-|-------0---------|---------0-------|
B-|-----1--------1---|-----1---1-------|-------1---1-----|
G-|---2--------2-----|---2-------2-----|-----2-------2---|
D-|-3------2-0-------|-0---------------|---2-----------2-|
A-|------------------|-------------3-2-|-0---------------|
E-|------------------|-----------------|-----------------|

e-|------------------|---------0-------|--------------0--| B-|------------1-----|-------1---1-----|-----------1-----| G-|----------2---2---|-----2-------2---|---------2-------| D-|----2---2-------2-|---2-----------2-|---2---2---------| A-|--0---0-----------|-0---------------|-0---0-----------| E-|------------------|-----------------|-----------------|
 CG/BAm
e-|---------0--------|--------------0----|---------0--------------------------|
B-|-------1---1------|-------1h3---3p1---|-------0---0-------5----3---1--0----| 
G-|-----0-------0----|-----0-------------|-----2-------2/5-----4---2-0--------| 
D-|---2-----------2--|---0---------------|---2--------------------------------|

A-|-3----------------|-2-----------------|-0---------------------------------| E-|------------------|-------------------|-----------------------------------|
C G/B Am N.C.
e-|---------0--------|-----------0-----|---------0-------|-----8------7----|
B-|-------1---1------|-------1-3---3-1-|-------0---0-----|-----------------|
G-|-----0-------0----|-----0-----------|-----2-------2---|---9------7------|
D-|---2-----------2--|---0-------------|---2-------------|-----------------|
A-|-3----------------|-2---------------|-0---------------|-----------------|
E-|------------------|-----------------|-----------------|-----------------|

 AmAm/FAm/F#Am/F
e-|--------0---------|------0----------|-------0---------|------0----------|
B-|------1---1-------|-----1---1-------|-----1---1-------|----1---1--------|
G-|----2------2---2--|---2-------2---2-|----2------2---2-|---2-------2---2-|
D-|--2----------2----|-3-----------3---|--4----------4---|-3-----------3---|
A-|------------------|-----------------|-----------------|-----------------|
E-|------------------|-----------------|-----------------|-----------------|

Am Am/D Am/C Am/B Am u.
e-|-------0--------0-|-------0-------0-|-----------------|-5-7-8------12---||
B-|-----1--------1---|-----1-------1---|-------1----1/5--|------------10---||
G-|---2--------2-----|---2-------2-----|-----2-----------|------------9----||
D-|-2--------0-------|-----------------|---2-------------|------------10---||
A-|------------------|-3-------2-------|-0---------------|------------0----||
E-|------------------|-----------------|-----------------|-----------------||

























Corrected by broo0ose. View original
Am Am/B Am/C Am/D Am/F Am/F# C G/B
variations - click chord images
Transpose chords:
Tuning:
Cool service:
View: Size:
A  A  A
Rating:
Layout:
  • Currently 3.1/5 Stars.
  • 1
  • 2
  • 3
  • 4
  • 5
 
Accuracy:
  • Currently 2.6/5 Stars.
  • 1
  • 2
  • 3
  • 4
  • 5
 
click stars to rate
Chordie recommends:
Learn how to play guitar at JamPlay.com
Songbook:
Login to add this song to your songbook
Support the artist
Preview/buy this song
MSN Music
Why this non-profit ad?

 
login to add comments/video/corrections