Harvest Moon

Neil Young

 Em7DD/BDmaj7
 Come a little bit closer, hear what I have to say        
 Em7DD/BDmaj7
 Just like children playin', we could dream this night away      
 GDD/BDmaj7
 But there's a full moon risin',  Let's go dancin' in the light    
 GDD/BDmaj7
 We know where the music's playin', let's go out and feel the night  

Chorus

 A7sus4A7
 Because I'm still in love with you
 A7sus4
I wanna see you dance again
 A7
Because I'm still in love with you
 D
On this Harvest Moon

When we were strangers, I watched you from afar
When we were lovers, I loved you with all my heart
But now it's gettin' late, and the moon is climbing high
I wanna celebrate, see it shinin' in your eye

Chorus

*****************************************************************************************

The above is solely MY INTERPRETATION of this great song, in a format aimed at learning guitarists.
No attempt has been made to copy or reproduce the artist's or publisher's sheet music for the song,
if such exists.

It can be used for INFORMATIONAL PURPOSES ONLY. To play the song as it should be played, you should
purchase the official sheetmusic for the song. You should also purchase and listen to the song to learn
the rhythm and timing of the song - this is essential if you wish to play the song with any degree of accuracy

*****************************************************************************************





A7 A7sus4 D D/B Dmaj7 Em7 G
variations - click chord images
Transpose chords:
Tuning:
Cool service:
View: Size:
A  A  A
Rating:
Layout:
  • Currently 3.3/5 Stars.
  • 1
  • 2
  • 3
  • 4
  • 5
 
Accuracy:
  • Currently 3.5/5 Stars.
  • 1
  • 2
  • 3
  • 4
  • 5
 
click stars to rate
Chordie recommends:
Learn to play songs at Jamplay.com with video guitar lessons
Songbook:
Login to add this song to your songbook
Support the artist
Preview/buy this song
MSN Music
Why this non-profit ad?

 
login to add comments/video/corrections

amboisvert (report comment to admin):
The riff (D to Dmaj7) at the end of each line should be played twice through, and also at the end of the chorus.  It is the signature riff of the song.  


This is the only one of the arrangements that seems to come close to having the chords right.

Tony
dmdanmac (report comment to admin):
Riff [Dsus2] [D6/9] [Dmaj7] (x4)

tab[E- 0---0---0---9----9---9--]
[B- 10--12--12--11---11--11--]
[G- 11--11--11--11---11--11--]
[D- 0------------------------]
harmonic [-12----------]
[---12--------]
[-----12------]
[-------12----]
[---------14--]
play harmontic up one string at a time
mickey mc donald (report comment to admin):
here's my version :

intro to be played for every D chord :
either

e---2------2-------2---2---2-------2---2---2-----2---2---2--------I
b---3------3-------3---3---3-------2---2---2-----2---2---2--------I
g---2------4-------2---2---2-------2---2---2-----2---2---2--------I
d---0------0-------0---0---0-------0---0---0-----0---0---0--------I
a---x------x-------x---x---x-------x---x---x-----x---x---x--------I
e---x------x-------x---x---x-------x---x---x-----x---x---x--------I

or

e----0------0-------0---0---0--------9---9---9------9---9---9---------I
b---10-----12------10--10--10------10--10--10----10--10--10--------I
g---11-----11------11--11--11------11--11--11----11--11--11--------I
d----0------0-------0---0---0--------0---0---0------0---0---0---------I
a----x------x-------x---x---x--------x---x---x------x---x---x---------I
e----x------x-------x---x---x--------x---x---x------x---x---x---------I

to play for Em chords by guitar #1 com/watch?v=XQXnvNwGTAY) :

e------h12----------------------------------I
b---------h12-------------------------------I
g-------------h12---------------------------I
d------------------h12----------------------I

a-----------------------h9-------------------I
e--------------------------------------------I

Em D
Come a little bit closer, hear what I have to say
Em D
Just like children sleepin' we could dream this night a way.
G D
But there's a full moon rising, let's go dancing in the light.
G D
We know where the music's playing, lets go out and feel the night.

chorus:
G A Em
Because I'm still in love with you, I wanna see you dance a gain,
A D
Because I'm still in love with you, on this harvest moon.

Em D
When we were strangers I watched you from af ar
Em D
When we were lovers I loved you with all my he art
G D
But now it's gettin' late and the moon is climbin' hi gh
G D
I want to celebrate, see it shinin' in your e ye
hope it helps