Warning

Greenday

 ADGD
emergency evacuation protest
 ADGD
may impair your ability to operate machinery
 ADGD
cant quite tell just what it means to me

keep out of reach of children dont you talk to strangers
get your philosophy from a bumper sticker
 ADGDADGD
warning live without warning                     
 ADGD
say warning live without warning
 ADGD
       without, alright

mental homes and safety cell communities
did you remember to pay the utility
caution police sign you'd better not cross
its a cop or am i the one thats really dangerous
sanitation expiration date question everything
or shut up and be a victim of authority

warning live without warning
say warning live without warning
say warning live without warning
say warning live without warning

this is a public service anouncement this is only a test

Date: Tuesday September 26, 2000
From: Peter Ferragine (pferragine@home.com)
Group: Green Day
Album: Warning
Released: 2000 reprise records
Track: 1
Title: warning

intro/verse/main thing

 AC#D
|-----------------------------------------------------------------
|-----------------------------------------------------------------
|---------6-7-7-7-7-11-12-12-12-12-11-7-7-7-7-6---------6-7-7-7-7-
|-7-7-7-7-6-7-7-7-7-11-12-12-12-12-11-7-7-7-7-6-7-7-7-7-6-7-7-7-7-
|-7-7-7-7-4-5-5-5-5--9-10-10-10-10--9-5-5-5-5-4-7-7-7-7-4-5-5-5-5-
|-5-5-5-5---------------------------------------5-5-5-5-----------
 -----------------------------|
 -----------------------------|
 -11-12-12-12-12-11-7-7-7-7-6-|
 -11-12-12-12-12-11-7-7-7-7-6-|
 --9-10-10-10-10--9-5-5-5-5-4-|
 -----------------------------|


riff/bridge

|-------------------------------------------------|
|-------------------------------------------------|
|-------------------------------------------------|
|-------------------------------------------------|
|---4-0----------4-0---------4-0----------4-0-----|
|-5-----3-0--5-5-----3-0---5-----3-0--5-5-----3-0-|






A C# D G
variations - click chord images
Transpose chords:
Tuning:
Cool service:
View: Size:
A  A  A
Rating:
Layout:
  • Currently 3.3/5 Stars.
  • 1
  • 2
  • 3
  • 4
  • 5
 
Accuracy:
  • Currently 3.3/5 Stars.
  • 1
  • 2
  • 3
  • 4
  • 5
 
click stars to rate
Chordie recommends:
Learn to play songs at Jamplay.com with video guitar lessons
Songbook:
Login to add this song to your songbook
Support the artist
Preview/buy this song
MSN Music
Why this non-profit ad?

 
login to add comments/video/corrections