Chordie logo


Boulevard of Broken Dreams  Greenday

(In Power chords)
[F] [G#] [Eb] [Bb] 
[F] [G#] [Eb] [Bb] 

[F]I walk a l[G#]onely road
The [Eb]only one that [Bb]I have ever known
[F]Don't know wh[G#]ere it goes
But [Eb]it's home to [Bb]me and I walk alone
   [F]     [G#]       [Eb]     [Bb]                
|--3-4-------8-6-------3-4--------|
|----------------------------------|
|----------------------------------|
|----------------------------------|
|----------------------------------|
|----------------------------------|
[F]I walk this [G#]empty street
[Eb]On the Bouleva[Bb]rd of broken dr[F]eams
Where the c[F]ity sleeps
And [Eb]I'm the only o[Bb]ne and I walk al[F]one

     [F]     [G#]       [Eb]     [Bb]                
|--3-4-------8-6-------3-4--------|
|----------------------------------|
|----------------------------------|
|----------------------------------|
|----------------------------------|
|----------------------------------|
I walk al[A]one and I walk a-

     [F]     [G#]       [Eb]     [Bb]                
|--3-4-------8-6-------3-4--------|
|----------------------------------|
|----------------------------------|
|----------------------------------|
|----------------------------------|
|----------------------------------|
Chorus:
[Db]My shado[G#]ws the on[Eb]ly one that w[F]alks beside me
[Db]My shall[G#]ow he[Eb]arts the only th[F]ing that's beating
[Db]Sometime[G#]s I wi[Eb]sh someone out t[F]here will find me
[Db]'Till th[G#]en I'll wa[C]lk alone


[F]       [G#]        [Eb]       [Bb]  (x2)
Ah ah ah ah ah ah ah-ah


[F]I'm walking [G#]down the line
[Eb]That divides me so[Bb]mewhere in my mind
[F]On the bor[G#]der line o[Eb]f the edge
And w[Bb]here I walk alone
     [F]     [G#]       [Eb]     [Bb]                
|--3-4-------8-6-------3-4--------|
|----------------------------------|
|----------------------------------|
|----------------------------------|
|----------------------------------|
|----------------------------------|

[F]Read betwe[G#]en the lines
[Eb]What's ..... up and e[Bb]verything's alright
[F]Check my v[G#]ital signs to k[Eb]now I'm still al[Bb]ive
And I walk al[F]one

     [F]     [G#]       [Eb]     [Bb]                
|--3-4-------8-6-------3-4--------|
|----------------------------------|
|----------------------------------|
|----------------------------------|
|----------------------------------|
|----------------------------------|
I walk al[Eb]one I walk a[Bb]lone,

     [F]     [G#]       [Eb]     [Bb]                
|--3-4-------8-6-------3-4--------|
|----------------------------------|
|----------------------------------|
|----------------------------------|
|----------------------------------|
|----------------------------------|
[Eb] I walk al[Bb]one and I walk a-


Chorus:
[Db]My shado[G#]ws the on[Eb]ly one that wa[F]lks beside me
[Db]My shall[G#]ow he[Eb]arts the only thi[F]ng that's beating
[Db]Sometime[G#]s I wi[Eb]sh someone out th[F]ere will find me
[Db]'Till th[G#]en I'll wal[C]k alone

[F]       [G#]        [Eb]       [Bb]  (x2)
Ah ah ah ah ah ah ah-ah

[Eb]    [Bb]                                
I walk al[A]one and I walk a-

[Db]        [G#]         [Eb]     [F]                                    
|-1-1--3-4--4-4----8-6--6-6---3-4----4-4-4-4-|
|---------------------------------------------|
|---------------------------------------------| }repeat 4x and then
|---------------------------------------------|
|---------------------------------------------|
|---------------------------------------------|


[Db]        [G#]         [Bb]
|-1-1--3-4--4-4--8-6--6-6---8-8-8-8-8-8-8-8-8-8-8-8-8-|
|------------------------------------------------------|
|------------------------------------------------------|
|------------------------------------------------------|
|------------------------------------------------------|
|------------------------------------------------------|


(Now in bar chords)

[F]I walk this e[G#]mpty street
[Eb]On the Boulev[Bb]ard of broken dr[F]eams
Where the ci[G#]ty sleeps
And [Eb]I'm the only o[Bb]ne and I walk a[C]...

(back to power chords)

[Db]My shado[G#]ws the on[Eb]ly one that wa[F]lks beside me
[Db]My shall[G#]ow he[Eb]arts the only thi[F]ng that's beating
[Db]Sometime[G#]s I wi[Eb]sh someone out th[F]ere will find me
[Db]'Till th[G#]en I'll wal[C]k alone

Important: The song above is NOT stored on the Chordie server. The original song is hosted at www.pjandphil.utvinternet.com. Chordie works as a search engine and provides on-the-fly formatting. Chordie does not index songs against artists/composers will. To remove this song please click here.

Text color:
Chord color:
Chord grids: 
Font size:    
Page size: 

A Bb C Db Eb F G#
variations - click chord images

Login - add to songbook

Transpose chords

Tuning

Rating click stars to rate

Layout
Accuracy

SHARE PAGE  




You need to log in to post comments

skraps (report)

on the chorus each line ends with an A the Em.

Crash15 (report)

The thing that ruins the song is at the end when you use Eb. That's what I don't like. :P

kutusen (report)

love this song, but it was'nt so many chordies.

hamsta1995 (report)

thank you
first ever chordie that make sense(well that ive read)
except the end

MartinButUked (report)

i think it should be Em G D A Em.

string_boy (report)

you dont need that Eb there but other then that ur good i think

macavoy (report)

ddu also works.

macavoy (report)

Two downstrokes per note sounds good.

iwana_forever (report)

Love this song!!!Not so bad!!!

williamv (report)

Sorry guys. Will try to improve on that.

JockMurray (report)

Great chord changes, sounds great but I have to agree I don't like the ending.

guitarfreak07 (report)

chords are right except for the ones at the end; they sound horrible.