"yes"; ?> Hitchin' a Ride by Greenday - guitar chords, guitar tabs and lyrics - chordie

Hitchin' a Ride

Greenday

E|-------------------------------------------|

B|-------------------------------------------|
G|------8h9-11~~~~~~-12-11-9-8t9-------------|
D|-9h10--------------------------10~~~~~~~~~-|
A|-------------------------------------------|
E|-------------------------------------------|

 EF#BAG#G
Solo: (Each ----> contains eight strums)

E|---->---->---->--------->---->---->---->---->
B|-12->-15->-12->-17-+-15->-12->-15->-17->-17->
G|---->---->---->--------->---->---->---->---->
D|--9->-12->--9->-14-+-12->--9->-12->-14->-14->
A|---->---->---->--------->---->---->---->---->
E|---->---->---->--------->---->---->---->---->

Gradual Bend -->

E|---------------------|---------------------|---------------------|
B|-17---15---12---15---|-17---15---12---15---|-17---15---12---15---|
G|---------------------|---------------------|---------------------|
D|-14---12----9---12---|-14---12----9---12---|-14---12----9---12---|
A|---------------------|---------------------|---------------------|
E|---------------------|---------------------|---------------------|
E|---------------------|---------------------|---------------------|
B|-17---15---12---10---|-12---15---17---15---|-12---15---17---15---|
G|---------------------|---------------------|---------------------|
D|-14---12----9----7---|--9---12---14---12---|--9---12---14---12---|
A|---------------------|---------------------|---------------------|
E|---------------------|---------------------|---------------------|
E|-------------------------|-------------------------|
B|-17-17-17-17-17-17-17-17-|-17-17-17-17-17-17-17-17-|
G|-------------------------|-------------------------|
D|-14-14-14-14-14-14-14-14-|-14-14-14-14-14-14-14-14-|
A|-------------------------|-------------------------|
E|-------------------------|-------------------------|
   gradual bend------------------------------------->


 BDG#G

Hey mister, where you headed?
Are you in a hurry?
I need a lift to happy hour.
Say oh no.
Do you brake for distilled spirits?
I need a break as well.
The well that inebriates the guilt.
1, 2, 1, 2, 3, 4...

Cold turkey's getting stale, tonight I'm eating crow.
Fermented salmonella poison oak no

There's a drought at the fountain of youth, and now I'm dehydrating.
My tongue is swelling up, as say
1, 2, 1, 2, 3, 4...
Troubled times, you know i can not lie.
I'm off the wagon and I'm hitchin' a ride.

There's a drought at the fountain of youth, and now I'm dehydrating.
My tongue is swelling up, I say Shit!

*****************************************************************************************

The above is solely MY INTERPRETATION of this great song, in a format aimed at learning guitarists.
No attempt has been made to copy or reproduce the artist's or publisher's sheet music for the song,
if such exists.

It can be used for INFORMATIONAL PURPOSES ONLY. To play the song as it should be played, you should
purchase the official sheetmusic for the song. You should also purchase and listen to the song to learn
the rhythm and timing of the song - this is essential if you wish to play the song with any degree of accuracy

*****************************************************************************************





A B D E F# G G#
variations - click chord images
Transpose chords:
Tuning:
Cool service:
View: Size:
A  A  A
Rating:
Layout:
  • Currently 5/5 Stars.
  • 1
  • 2
  • 3
  • 4
  • 5
 
Accuracy:
  • Currently 4.5/5 Stars.
  • 1
  • 2
  • 3
  • 4
  • 5
 
click stars to rate
Chordie recommends:
Learn how to play guitar at JamPlay.com
Songbook:
Login to add this song to your songbook
Support the artist
Preview/buy this song
MSN Music
Why this non-profit ad?

 
login to add comments/video/corrections