eToCache5 = ""; ?> After Forever by Black Sabbath - guitar chords, guitar tabs and lyrics - chordie

After Forever

Black Sabbath

=== The Eternal Idol's Black Sabbath Tablature
=== http://www.rdrop.com/~mjames/sabbath/

from- Michael James
After Forever Black Sabbath - Master Of Reality (1971)
Tune down 1 1/2 steps
|----------------------------------------------------------- |----------------------------------------------------------- |----------------------------------------------------------- |-11-9-7-9-9-7-2-0-2-2-2-0-11-9-7-9-9/-11-9-7-9-9/---------- |--0-0-0-0-0-0-0-0-0-0-0-0--0-0-0-0-0---0-0-0-0-0----------- |-----------------------------------------------------------
|---------------------------------------------------------- |---------------------------------------------------------- |--7/9-9-9-9---9/12-12-12-12---7/9-9-9-9------------------- |--7/9-9-9-9---9/12-12-12-12---7/9-9-9-9------------------- |-x5/7-7-7-7-x-7/10-10-10-10-x-5/7-7-7-7----5-5-5-5-(5)p4-- |-----------------------------------------0-3-3-3-3-(3)p2--
|------------------------------ |------------------------------ |------------------------------ |-5--5--5---5---3--3--8\3--5--- |-5--5--5h7-7p5-3--3--8\3--5--- |------------------------------
|------------------------------ |------------------------------ |------------------------------ |-7--7--7---7---5--5-10\5--7--- |-7--7--7h9-9p7-5--5-10\5--7--- |------------------------------
|---------------------------------------------------------- |---------------------------------------------------------- |---------------------------------------------------------- |----------7--7-------------------7--7--------------------- |---------------5h6p5---5--------------5h6p5---5-----------
|-3-4-5--5------------8---8--5--5------------8-------------
Solo: |---------------------------------------------------------- |---------------------------------------------------------- |------------------------------7~-------------------------- |---------------9---------7--9----9p7-9-------------------- |---------7-8-9---7---7-9---------------------------------- |-5/7-7-10-------------------------------------------------
|---------------------------------------7----7--------------- |---------------------------------7---10------10-7----------- |-----------------------------7-9---7--------------9^^9-8---- |-----------9-----------7-8-9-------------------------------- |-----7-8-9---7---7-8-9-------------------------------------- |-7-10-------------------------------------------------------
|--------------------------10p7-7------------------------------- |----10------10-10-10p7--10-------/12-12---12-12p10------------- |-/11--9-7-/11----------9---------------11---------11-11p9------ |----------------------------------------------------------11-12 |--------------------------------------------------------------- |---------------------------------------------------------------
|----------------------------------------------------------- |-------7-10--7-10--7-10--7-10--7-10--7-10--7-10--7-10------ |----9^-----9^----9^----9^----9^----9^----9^----9^---------- |-12-------------------------------------------------------- |----------------------------------------------------------- |-----------------------------------------------------------
|-------------------- |-------------------- |-9^p7---9-----7----- |-----9-----9-------- |-------------------- |--------------------




























variations - click chord images
Transpose chords:
Tuning:
Cool service:
View: Size:
A  A  A
Rating:
Layout:
  • Currently 0/5 Stars.
  • 1
  • 2
  • 3
  • 4
  • 5
 
Accuracy:
  • Currently 3/5 Stars.
  • 1
  • 2
  • 3
  • 4
  • 5
 
click stars to rate
Chordie recommends:
Learn how to play guitar at JamPlay.com
Songbook:
Login to add this song to your songbook
Support the artist
Preview/buy this song
MSN Music
Why this non-profit ad?

 
login to add comments/video/corrections