A Hard Road

Black Sabbath

=== The Eternal Idol's Black Sabbath Tablature
=== http://www.rdrop.com/~mjames/sabbath/

from- Michael James
A Hard Road Black Sabbath - Never Say Die (1978)
|------------------------|------------------------| |------------------------|------------------------| |------------------------|------------------------| |------------------------|------------------------| |-2--2--2--2--2--2--2--2-|-2--2--2--2--2--2--2--2-| |------------------------|------------------------|
|----------------------|----------------------------| |--------------2--4-4--|--------2--4-4--------------| |-------4p2----2--4-4--|-4p2----2--4-4--4p2---------| |-----------4----------|-----4--------------4-------| |-2--2-----------------|----------------------2--2--| |----------------------|----------------------------|
chorus:"oh its hard road..." |-----------------------------------| |-----------------------------------| |-4--4--4-4--4-4--4-4--2--2--2-2-9--| |-4--4--4-4--4-4--4-4--2--2--2-2-9--| |-2--2--2-2--2-2--2-2--0--0--0-0-7--| |--------------------------------0--|
|------------------------------------------------| |---------------------------------2---4-4---4-4--| |----------------------------4----2---4-4---4-4--| |-4-4-/6-4---4--4-4-/6-4-4/6---4--2---4-4---4-4--| |------------------------------2-----------------| |------------------------------------------------|
|------------------------------------------------| |---------------------------------2---4-4---4-4--| |---------------------------------2---4-4---4-4--| |-4-4-/6-4------4-4-/6-4--2-4--4--2---4-4---4-4--| |------------------------------2-----------------| |------------------------------------------------|
solo: |------------------------------------------------| |-2-3-2-----------5-4-2---------------2-3-2------| |-------4~~~~----------2---2-2-2~~~---------4~~--| |------------------------4-----------------------|
|------------------------------------------------| |------------------------------------------------|
|--7---7-----7---7----------------10--10----10--10--| |-10^-10^---10^-10^---5-3-2-------13^-13^---13^-13^-| |--------------------------2---2--------------------| |----------------------------4----------------------| |---------------------------------------------------| |---------------------------------------------------|
|--7---7---7---7---------------------------------------| |-10^-10^-10^-10^--------------------------------------| |---------------------------------4-4---4-4---4-6^-6-4-| |-----------------------------/4h6---4h6---4h6---------| |------------------------------------------------------| |--------------------7-5--5h7--------------------------|
b r r |-------------------------------------------| |----5-6-7----------------------------------| |-6^-------4--6-4-6864-6---4-6p4-7^^^6-4-4--| |------------------------6------------------| |-------------------------------------------| |-------------------------------------------|
|-----------7~~\\---------7~~\\---------------------| |-------7-9-----------7-9---------------------------| |-4-6/8------------/8-----------7^6^-4-4-6-8^6^-4-4-| |---------------------------------------------------| |---------------------------------------------------| |---------------------------------------------------|
|-------------------------------------------------| |-----7-----------7-----------7-----------7-------| |-6/8---8\6-4-6/8---8\6-4-6/8---8\6-4-6/8---8\6-4-| |-------------------------------------------------| |-------------------------------------------------| |-------------------------------------------------|
|------------------------------------------------------| |-3/5-5^5^5^5^5^5^----5-5------5------3----------------| |------------------6^-----6^-4---6^-4--4-2-------------| |-----------------------------------------4-3-2-2------| |----------------------------------------------5-5-4-2-| |------------------------------------------------------|



























variations - click chord images
Transpose chords:
Tuning:
Cool service:
View: Size:
A  A  A
Rating:
Layout:
  • Currently 0/5 Stars.
  • 1
  • 2
  • 3
  • 4
  • 5
 
Accuracy:
  • Currently 2.3/5 Stars.
  • 1
  • 2
  • 3
  • 4
  • 5
 
click stars to rate
Chordie recommends:
Learn to play songs at Jamplay.com with video guitar lessons
Songbook:
Login to add this song to your songbook
Support the artist
Preview/buy this song
MSN Music
Why this non-profit ad?

 
login to add comments/video/corrections