Guitar Tabs, Chords and Lyrics


Laguna Sunrise  Black Sabbath

A::
 GUIT 1 [first note an upbeat sixteenth: 1-&-2-duh-duh-duh-duh-dah]
 ---||----------------------------------|------------------------------------|
 ---||----------------------------------|---------------------------------0--|
 ---||o---------------------------------|-----------------------------0-2----|
 ---||o-----2/4-5-4\2-4================-|-----------------2/4-5-4\2-4--------|
 ---||----------------------------------|------------------------------------|
 ---||----------------------------------|------------------------------------|

    || [e.] s s s s s h                    [q-e.]         s s s s s s s s s  |
GUIT 2 |
    ||  D [up&down "drag" strum]                                             |
 ---||--------2---2=======--------------|---------2---2=======---------------|
 ---||--------3---3=======--------------|---------3---3=======---------------|
 ---||o-------2---2=======--------------|---------2---2=======---------------|
 ---||o--0================------0-------|---0=================------0--------|
 -0-||-----------------------0-----0----|-----------------------0-------0----|
 ---||----------------------------------|------------------------------------|
  e      q    e   e---e      e  e  e        q     e   e-----e   e   e   e

    [grace note] 
 |--------------------------------------|------------------------------------|
 |----(0h)1-----------------------------|------------------------------------|
 |----------------2---2=================|===2====----------------------------|
 |--------------------------------------|------------------------------------|
 |--------------------------------------|------------------------------------|
 |--------------------------------------|------------------------------------|
 |        q.      e   h---------------------q     [h.]                       |

| |
| Dm7 |
 |------------5---5=======--------------|---------5---5======----------------|
 |------------6---6=======--------------|---------6---6======----------------|
 |------------5---5=======--------------|---------5---5======----------------|
 |--------3===============------3-------|---3================-------0--------|
 |---------------------------0-----0----|-----------------------0-------0----|
 |--------------------------------------|------------------------------------|
          q   e   e---e      e  e  e        q     e   e-----e   e   e   e
 |--------------------------------------|------------------------------------|
 |--------------------------------------|---------------------------------0--|
 |--------------------------------------|-----------------------------0-2----|
 |----------2/4-5-4\2-4================-|-----------------2/4-5-4\2-4--------|
 |--------------------------------------|------------------------------------|
 |--------------------------------------|------------------------------------|

|     [e.] s s s s s h                    [q-e.]         s s s s s s s s s  |
| |
| D |
 |------------2---2=======--------------|---------2---2======----------------|
 |------------3---3=======--------------|---------3---3======----------------|
 |------------2---2=======--------------|---------2---2======----------------|
 |-------0================------0-------|---0================-------0--------|
 |---------------------------0-----0----|-----------------------0-------0----|
 |--------------------------------------|------------------------------------|
         q    e   e---e      e  e  e        q     e   e-----e   e   e   e
 |--------------------------------------|------------------------------------|
 |----(0h)1-----------------------------|------------------------------------|
 |----------------2---2=================|===2====----------------------------|
 |--------------------------------------|------------------------------------|
 |--------------------------------------|------------------------------------|
 |--------------------------------------|------------------------------------|
 |        q.      e   h---------------------q     [h.]                       |

| slow gliss sl.|
| Dm7 G5 |
 |------------5---5=======--------------|---------5---5==========------------|
 |------------6---6=======--------------|---------6---6==========-----3\-----|
 |------------5---5=======--------------|---------5---5==========-----0-\----|
 |--------3===============------3-------|---3====================-----5\-----|
 |---------------------------0-----0----|-------------------------------\----|
 |--------------------------------------|------------------------------------|

q e e---e e e e q e e-q q
___________________________________________________________________________
| A1:: -->to A::|
 |-------------------------------------|------------------------------------||
 |--------2h3--2p0-----2==============-|--------2h3--2p0-----2=============-||
 |-------------------------------------|-----------------------------------o||
 |-------------------------------------|-----------------------------------o||
 |-------------------------------------|------------------------------------||
 |-------------------------------------|------------------------------------||

|  [q]   s s  s s     h                  [q]   s s  s s     h              ||
| ||
| Asus2 G5 Asus2 ||
 |-------------------------------------|------------------------------------||
 |---0=================0------3\-------|---0=================0=====---------||
 |---2=================2------0-\------|---2=================2=====--------o||
 |---2======---2=======2------5\-------|---2======---2=======2=====---*----o||
 |---------0===========0--------\------|---------0===========0=====---0-----||
 |-------------------------------------|------------------------------------||

q e e q q q e e q. e
<_____________________________________>
    A2:: same as A1 ending, but omit *[final open "a" note]; go to B::
A3:: repeat & fade on measure 1 <____> of A1:: ending, all the while
hoping your electric's in tune for "Supernaut"!...
    B:: [only GUIT1 sbown; GUIT2: play cbords as indicated]
      [C]                                     [Am]                                           
 ||------0---3---1--0h1p0-----0--------|----------------------------------


Important: The song above is NOT stored on the Chordie server. The original song is hosted at www.rdrop.com. Chordie works as a search engine and provides on-the-fly formatting. Chordie does not index songs against artists'/composers' will. To remove this song please click here.

Text color:
Chord color:
Chord grids: 
Font size:    
Page size: 

Am C
variations - click chord images

Login - add to songbook

Transpose chords

Tuning

Rating click stars to rate

Layout
Accuracy

SHARE PAGE  




You need to log in to post comments