Ladies

Jethro Tull

-------0    -------0    -------3    -------1 

-------1    -------1    -------1    -------1 

-------2    -------2    -------2    -------2 

-0-2---2    -0-2---2    -0-2---2    -0-2---2 

-----0-0    -----0-0    -----0-0    -----0-0 

--------    --------    --------    -------- 

-----0-------0---------0 

-----1-------1---------1 

-----2-------2---------2 

-----0-------0---------2 

-0-2-0---0-2-0---2-0---0 

---------------------3-- 


 BABA
Ladies of leisure, with their eyes on the back roads ---
 Asus4EAsus4E
All looking for strangers, to whom they extend welcomes
 BABB
With a smile and a glimpse of pink knees and elbows;
 Asus4EAsus4E
Of satin and velvet --- good ladies, good fortune.
 FEFE
 Ladies.     Ladies.  
 BABA
They sing of their heroes: of solitary soldiers
 Asus4EAsus4E
Invested in good health and manner most charming.
 BABA
Whose favors are numbered (none the less well intended)
 Asus4EAsus4E
By hours in a minute; by those ladies who bless them.
 FE
 Ladies.  
Outro: E




















A Asus4 B E F
variations - click chord images
Transpose chords:
Tuning:
Cool service:
View: Size:
A  A  A
Rating:
Layout:
  • Currently 2.2/5 Stars.
  • 1
  • 2
  • 3
  • 4
  • 5
 
Accuracy:
  • Currently 1.9/5 Stars.
  • 1
  • 2
  • 3
  • 4
  • 5
 
click stars to rate
Chordie recommends:
Learn to play songs at Jamplay.com with video guitar lessons
Songbook:
Login to add this song to your songbook
Support the artist
Preview/buy this song
MSN Music
Why this non-profit ad?

 
login to add comments/video/corrections