Only The Wind

Billy Dean

 FCDm
 I remember as a child on a dark and stormy night 
 DmC
 I heard the screen door slam and I was overcome with fright
 FC
 So afraid that something bad was trying to get in
 AmDmG
Then mama came to comfort me and said,
Chorus
 GFC
 It's only the wind, and nothing more
 AmCAmG
Not the end of the world knocking at the door
 FCFGAm
So close your eyes and dream again, believe me, it's only the wind
 FC
 Well everytime I've had to face a bitter storm of life,
 DmC
 Those words of comfort were my shelter in the night
 FC
But tonight I don't believe I'm able to pretend
 AmDmGAm
The storm that you and I are up against is only the wind.
(Instrumental)Am F Am F G
 AmFAm
|-------------------------------------------------------------------
|-------------------------------------18-16-------------------------
|-15-17-18-17-15-------------------15-------18-17-15----------------
|----------------15----------------------------------18-16-15-16----
|-------------------16-------16-------------------------------------
|----------------------18-18----18----------------------------------

 FG
|-------------------------------------16-------
|----------------------------------16----------
|-------15-15h17-18-17-17h18p17-15-------------
|-16h18----------------------------------------
|----------------------------------------------
|----------------------------------------------

 FC
 I can hear you downstairs and you're just about to leave
 AmC
There's nothing left that I can do to keep you here with me, no
 FC
 And now the screen door's slammin and I'm frightened once again
 AmDmG
What I wouldn't give if I could be convinced
 GFC
 It's only the wind, and nothing more
 AmCAmG
Not the end of the world walking out the door
 FAmFGF
I wish that I could dream again, believing it's only the wind
 CAmCAmG
Oh and nothing more, not the end of my world walking out the door
F Am F G F C F C F C F (fade)
I wish that I could dream again, beleiving it's only the
wind........Only the wind
Jason A. Wendtland


Am C Dm F G
variations - click chord images
Transpose chords:
Tuning:
Cool service:
View: Size:
A  A  A
Rating:
Layout:
  • Currently 1/5 Stars.
  • 1
  • 2
  • 3
  • 4
  • 5
 
Accuracy:
  • Currently 2/5 Stars.
  • 1
  • 2
  • 3
  • 4
  • 5
 
click stars to rate
Chordie recommends:
Get acoustic guitar lessons and electric guitar lessons at JamPlay.com
Songbook:
Login to add this song to your songbook
Support the artist
Preview/buy this song
MSN Music
Why this non-profit ad?

 
login to add comments/video/corrections