Guitar Tabs, Chords and Lyrics


A Few Questions-tab   Clay Walker




Subject: A Few Questions (Guitar Solo) by Clay Walker

A Few Questions (Guitar Solo) by Clay Walker
CD: A Few Questions (September 9, 2003)
Key of (G)
 
This is a beautiful solo to a beautiful song.  Just listen to the cd for the timing.  The first part of the solo slides from the 6th fret to the 8th fret on the 5th & 6th stings together.ÊI am not sure who does the guitar work because the cd is not out yet but whoever it is, he plays a great one here. 
 
E |-6 / 8----------------------------------------------------------------------------------------^------^---------
A |-6 / 8-----15----12-----------------------------------------------------15-(h)-17-----17----17-------
D |--------------------------------14-----14-----12-----14----12--------------------------------------------
G |----------------------------------------------------------------------------------------------------------------
B |----------------------------------------------------------------------------------------------------------------
E |----------------------------------------------------------------------------------------------------------------
 
E |--------------------------------------------------------------------------------------------------------------
A |--------------------------------------------------^-----------------------------------------------------------
D |--------------------------------14-----12-----14-----12----------------^--------------------------------
G |----------------------------------------------------------------------------14-------14--------------------
B |---------------------------------------------------------------------------------------------------------------
E |---------------------------------------------------------------------------------------------------------------


Important: The song above is NOT stored on the Chordie server. The original song is hosted at www.roughstock.com. Chordie works as a search engine and provides on-the-fly formatting. Chordie does not index songs against artists/composers will. To remove this song please click here.

This song is displayed as text-only. Transposing and tuning is only available for chordpro-songs.

Login - add to songbook

Rating click stars to rate

Layout
Accuracy

SHARE PAGE  




You need to log in to post comments