Guitar Tabs, Chords and Lyrics


Couldn't Last A Moment  Collin Raye

Writers: Jeffrey Steele/Danny Wells

Chords to Know:
[F#m7/B]                                                                                  
E---0---4-----0----2---0----2------0-----0----0------------2----0--0---------2 

[----]                                                                                  
B---0---5-----0----4---0----2------0-----5----1-----4------1----0--1---------2 

[----]                                                                                  
G---1---6-----2----4---1----2------2-----4----0-----2------2----0--0---4-----2 

javascript:history.go(-1);
« back
[----]                                                                                  
D---2---6-----2----4---2----4------2-----2----2-----4------1----2--2---5-----2 

[----]                                                                                  
A---2---4-----0----2---0----4------0-----0----0-----3-----------2--3---5-----2 

[----]                                                                                  
E---0-----------------------2------2-----4----------------------0------3------ 

[---]                                                                                                            Riff (Intro Riff and Verse Riff):
Acoustic Strums
Electric Plays Tab
  [Cdim7]          [C#m]       [C#m]             [Asus2]                          [E]                        
E----------------------------------------------------------0------------------ 

[----]                                                                                  
B---4----4----5------5-------3-----------------------------0------------------ 

[----]                                                                                  
G---2----2----6------6-------6-----2------2--------2-------1------------------ 

[----]                                                                                  
D---4----4----6------6-------6-----2------2--------2-------2------------2-----
-------
A---3----3----4------4----4--------0------0----0-----------2------------2-----
-------
E----------------------------------------------------------0----0----0-----0--
-0----- 

(Play Riff Twice)
I thought it was over
I thought I could move on
But I was wrong
I woke up last night
calling your name
And feeling the blame, baby
[F#m]Thought I could quit you
But [E/G#]I still miss your love
Wh[Asus2]at was I thinking....thinking
I could still walk down the [E]street
Without you by my si[F#m11]de
Or make it through one[E/A] night alone, I [B]tried
I said a lot of [E]things I didn't really m[F#m11]ean
How can I make you s[C#m]ee what matters most to [B]me
Girl, I should ha[F#m]ve known it
I couldn't last a [Am7]moment it...without [E]you
Play Riff in between Chorus and Verse 2
(Play the same riff under verse 2)
Here it is:
  [Cdim7]          [C#m]       [C#m]             [Asus2]                          [E]                        
E----------------------------------------------------------0------------------ 

[----]                                                                                  
B---4----4----5------5-------3-----------------------------0------------------ 

[----]                                                                                 
G---2----2----6------6-------6-----2------2--------2-------1------------------ 

[----]                                                                                 
D---4----4----6------6-------6-----2------2--------2-------2------------2-----
-------
A---3----3----4------4----4--------0------0----0-----------2------------2-----
-------
E----------------------------------------------------------0----0----0-----0--
-0----- 

You've got every right
To turn around and walk away
I can't make you stay
I broke you heart
Thats the bottom line
I wasted so much precious time, baby
[F#m]I see you with your friends
We[E/G#]aring a smile again
Wh[Asus2]at was I thinking....thinking
I could still walk down the [E]street
Without you by my si[F#m11]de
Or make it through one[E/A] night alone, I [B]tried
I said a lot of [E]things I didn't really m[F#m11]ean
How can I make you s[C#m]ee what matters most to [B]me
Girl, I should ha[F#m]ve known it
I couldn't last a [Am7]moment it...without [E]you
Instrumental
Think of the timing like this:
"boom-boom" boom
(D#dim7) Em (4 beats) C (4 beats) G (4 beats)
E---2----2---------0-----
B---1----1---------0-----
G---2----2---------0-----
D---1----1---------2-----
A------------------2-----
E------------------0----- 

(D#dim7) Em (4 beats) C (4beats) F#m (4 beats) F#m7/B
E---2----2---------0-----
B---1----1---------0-----
G---2----2---------0-----
D---1----1---------2-----
A------------------2-----
E------------------0----- 

                                                                                                            [F#m]Thought I could quit you
But[E/G#] I still miss your love
Wh[Asus2]at was I thinking....thinking
I could still walk down the [E]street
Without you by my si[F#m11]de
Or make it through one[E/A] night alone, I [B]tried
I said a lot of [E]things I didn't really m[F#m11]ean
How can I make you s[C#m]ee what matters most to [B]me
Girl, I should ha[F#m]ve known it
I couldn't last a [Am7]moment it...without [E]you        [C#m]
Girl, I should ha[F#m]ve known it
I couldn't last a [Am7]moment it...without y[E]ou
Outro:
Play the main riff again, end on E chord
  [Cdim7]          [C#m]       [C#m]             [Asus2]                          [E]                       
E----------------------------------------------------------0------------------ 

[----]                                                                                 
B---4----4----5------5-------3-----------------------------0------------------ 

[----]                                                                                 
G---2----2----6------6-------6-----2------2--------2-------1------------------ 

[----]                                                                                 
D---4----4----6------6-------6-----2------2--------2-------2------------2-----
-------
A---3----3----4------4----4--------0------0----0-----------2------------2-----
-------
E----------------------------------------------------------0----0----0-----0--
-0----- 



Important: The song above is NOT stored on the Chordie server. The original song is hosted at www.roughstock.com. Chordie works as a search engine and provides on-the-fly formatting. Chordie does not index songs against artists'/composers' will. To remove this song please click here.

Text color:
Chord color:
Chord grids: 
Font size:    
Page size: 

Am7 Asus2 B C#m Cdim7 E E/G# F#m F#m11 F#m7/B
variations - click chord images

Login - add to songbook

Transpose chords

Tuning

Rating click stars to rate

Layout
Accuracy

SHARE PAGE  




You need to log in to post comments