Guitar Tabs, Chords and Lyrics


Love Me (CRD)  Collin Raye

[C]   [G/B]     [Am]    [C/G]     [F/A]     [G]   [C]   [F/C]    [C]     
verse 1
[C]  I read a [G/B]note my grand[Am]ma wrote back in [F]nineteen [G]twenty-[C]three

[C]  Grandpa ke[G/B]pt it in[Am] his coat and he [Dm7]showed it once to me [Gsus4]       [G]

He said [C]boy, you[G/B] might not unde[Am]rstand but a [F]long, long[G] time ago [C]
Grandma's d[G/B]addy didn't [Am]like me [F]none but I [G]loved your gran[G/B]dma so [C]  [F/C]    [C]
Chorus
[C]If you g[F]et there befo[G]re I do[C]   [F] don't give [G]up on me [C]

I'll [F]meet you when my [G]chores are through,[Am]

[Dm7]I don't know how[F] long I'll be [Gsus4]        [G]
But I'm [F]not gonna [G]let you down, [C]   [F] darling [G]wait and see[Am]
[G]And bet[F]ween now and [G]then, till I [E]see you [Am]again,
I'll be [F(addG]loving you [G]- love [C]      [G/B]     [Am]    [C/G]     [F/A]     [G]   [C]   [F/C]      [C]me
verse 2

We had this crazy plan to meet and run away together
get married in the first town we came to and live forever
But nailed to the tree where we were supposed to meet instead
I found this letter and this is what it said

Chorus

verse 3

I read those words just hours before my grandma passed away
In the doorway of a church where me and grandpa stopped to pray
I know I've never seen him cry in all my fifteen years
But as he said these words to her, his eyes filled up with tears

Chorus

Chords used

   [C]       [G/B]       [Am]         [C/G]        [F/A]         [G]       [F/C]                  
------- ----3-- ------- ------- -1----- ---3--- -1-----

-1----- ----3-- -1----- -1----- -1----- ------- -1-----
------- ------- --2---- ------- --2---- ------- --2----
---2--- ------- --2---- --2---- ---3--- ------- ---3---
----3-- -2----- ------- ------- ----0-- -2----- ---3---
------- ------- ------- ----3-- ------- ---3--- -------

  [F]        [Dm7]      [Gsus4]         [E]      [F(addG]                                    
-1----- -1----- ---3--- ------- ---3---

-1----- -1----- -1----- ------- -1-----
--2---- --2---- ---0--- -1----- --2----
---3--- ---0--- ---0--- --2---- ---3---
---3--- ------- ------- --2---- -------
-1----- ------- ---3--- ------- -------

Important: The song above is NOT stored on the Chordie server. The original song is hosted at www.roughstock.com. Chordie works as a search engine and provides on-the-fly formatting. Chordie does not index songs against artists'/composers' will. To remove this song please click here.

Text color:
Chord color:
Chord grids: 
Font size:    
Page size: 

Am C C/G Dm7 E F F/C G G/B Gsus4
variations - click chord images

Login - add to songbook

Transpose chords

Tuning

Rating click stars to rate

Layout
Accuracy

SHARE PAGE  




You need to log in to post comments