Take Chains From My Heart-crd

Hank Williams

-7--8--9------------9--7-----------------7--10--

--------------7--8----------------7--10---------

-----------9---------------9--7-----------------

------------------------------------------------

------------------------------------------------

------------------------------------------------


 DA
Take these chains from my heart and set me free
 AD
You're grow cold and no longer care for me
 DGEm
All my faith in you is gone but the heartaches linger on
 AD
Take these chains from my heart and set me free
 DA
Take these tears from my eyes and let me see
 AD
Just a spark of the love that use to be
 DGEm
If you love somebody new let me me find a new love too
 AD
Take these chains from my heart and set me free
lead chords D A D G Em A D A
 DA
Give my heart just a word of sympathy
 AD
Be as fair to my heart as you can be
 DGEm
Then if you no longer care for the love being there
 AD
Take these chains from my heart and set me free
 DA
Take these chains from my heart and set me free
 AD
You're grow cold and no longer care for me
 DGEm
All my faith in you is gone but the heartaches linger on
 AD
Take these chains from my heart and set me free
ENDING:
------------------7--10--
-----------7--10---------
---9--7------------------
-------------------------
-------------------------
-------------------------







A D Em G
variations - click chord images
Transpose chords:
Tuning:
Cool service:
View: Size:
A  A  A
Rating:
Layout:
  • Currently 2.9/5 Stars.
  • 1
  • 2
  • 3
  • 4
  • 5
 
Accuracy:
  • Currently 2.8/5 Stars.
  • 1
  • 2
  • 3
  • 4
  • 5
 
click stars to rate
Chordie recommends:
Learn to play songs at Jamplay.com with video guitar lessons
Songbook:
Login to add this song to your songbook
Support the artist
Preview/buy this song
MSN Music
Why this non-profit ad?

 
login to add comments/video/corrections