Guitar Tabs, Chords and Lyrics


The Little Girl6  John Montgomery

E----------------------------------------------------------------
B---------------------------------------------------------------
G----------------------------------------------------------------
D---3h5--5--5----3--2---0h2---3--2---0h2---3--2---0-------0----
A------------------------------------------------------3-----3
D-----------------------------------------------------------------

Intro: C Csus2 C Csus2 C G C
1 [C]Her parents never took the y[Csus2]oung girl to c[C]hurch
2 Her daddy drank all day and momma did drugs
3 And like it always does the bad just got worse
4 The first day of sunday school the teacher walked in
  Never sp[Dm]oke of His [C]name; never rea[Am]d her His w[G]ord
Never wanted to play or give kisses and hugs
With every slap and every curse
And a small little girl stared at a picture of Him
  [C]Two non believers walkin l[Csus2]ost through this w[C]orld
She'd watch the TV and sit there on the couch
Until her daddy in a drunk rage one night
She said I know that man up there on that cross
     Took their [Dm]baby with th[C]em, what a [Am]sad little g[G]irl
While mom fell asleep and her daddy went out.
pulled a gun on her mom and then took his life
I don't know His name but I know He got off
CHORUS
1 And the [G/A]drink  -  [Am]ing and the f[G/B]ight  -  i[F]ng
2 Then some people from the ci - ty
3 He was there in my old house
  j[C]ust got worse every n[G]ight
took the girl far away
and held me close to His side
  Behind t[G/A]heir c[Am]ouch she'd be [G/B]hid - i[F]ng
Too a new mom and a new dad
AsI hid there our couch
[C] Oh what a sad little [G]life
kisses and hugs everyday
the night that my parents died
play intro again, and to end the song
CHORDS NEEDED:
    [C]   [Csus2]       [Dm]     [Am]     [G]    [G/A]      [G/B]     [F]                                                                                                                                                        
E---0----1-----1----0----3---3-----3---1---------------------------------------------------
B---1----1-----3----1----0---3-----3---1--------------------------------------------------
G---0----0-----2----2----0---4-----0---2--------------------------------------------------
D---2----0-----X----2----0---5-----0---3--------------------------------------------------
A---3----3-----3----0----X---0-----2---3--------------------------------------------------
E------------------------5--------------------------------------------------------


Important: The song above is NOT stored on the Chordie server. The original song is hosted at www.roughstock.com. Chordie works as a search engine and provides on-the-fly formatting. Chordie does not index songs against artists'/composers' will. To remove this song please click here.

Text color:
Chord color:
Chord grids: 
Font size:    
Page size: 

Am C Csus2 Dm F G G/B
variations - click chord images

Login - add to songbook

Transpose chords

Tuning

Rating click stars to rate

Layout
Accuracy

SHARE PAGE  




You need to log in to post comments