Change Is Gonna Come-tab

Marshall Tucker Band

 Dm7Am7Gm7
E------1---------------3-----------------------
B------1-------1-------3-----------------------
G------2---------------3-----------------------
D--------------2-------3-----------------------
A----------------------5-----------------------
E----------------------3-----------------------

Intro/Rhythm Pattern Throughout:
 Dm7
E---------1---1---(1)----0-----------1---1---1-
B-----1---1---1---(1)------------1---1---1---1-
G--2------2---2---(2)--------2-------2---2---2-
D----------------------------------------------
A----------------------------------------------
E----------------------------------------------

 Am7
E--0-------------------------------------------
B--------1---1---1---(1)---1---------1---1---1-
G-----2--------------------------0-------------
D------------2---2---(2)------3------2---2---2-
A----------------------------------------------
E----------------------------------------------

 Dm7Am7
There was a time  I dreamed about money
 Dm7Am7
There was a day  I feared growing old
 Dm7Am7
Many times have come  when I think about you honey
 Dm7Am7
If you leave me girl  I got nowhere to go
 Gm7
And I know  and I know
 Dm7Am7
A change is gonna come   someday
 Dm7Am7
And I know  a change is gonna come
 Dm7Am7
Do you remember  a long long time ago
 Dm7
You would follow me all the time
 Am7
And everywhere I'd go
 Dm7
Now I find myself  I got a pot of gold
 Am7
Living on another name
 Dm7Am7
And what I got to know  is it still the same
 Gm7
And I know  and I know
 Dm7Am7
A change is gonna come  someday
 Dm7Am7
And I know  a change is gonna come
Solo: Dm7 Am7 Dm7 Am7 Gm7 Dm7 Am7
Repeat chorus and continue pattern on outro




Am7 Dm7 Gm7
variations - click chord images
Transpose chords:
Tuning:
Cool service:
View: Size:
A  A  A
Rating:
Layout:
  • Currently 2/5 Stars.
  • 1
  • 2
  • 3
  • 4
  • 5
 
Accuracy:
  • Currently 1/5 Stars.
  • 1
  • 2
  • 3
  • 4
  • 5
 
click stars to rate
Chordie recommends:
Learn to play guitar with video-based, online guitar lessons at JamPlay.com
Songbook:
Login to add this song to your songbook
Support the artist
Preview/buy this song
MSN Music
Why this non-profit ad?

 
login to add comments/video/corrections