Chordie logo


mercy seat   Johnny Cash










Date: Wed, 31 Mar 2004 13:26:30 +0000



Song: Mercy Seat
Artist: Johnny Cash (Original By Nick Cave)
Album: American III
Tab Corrected by: Sam Link

>Song: Mercy Seat
>Artist: Johnny Cash (Original by Nick Cave)
>Album: American Vol. 3
>Tabbed by: Simon Chettleburgh
>
>intro tab
>
>|-----------------|-------------|
>|-----------------|-------------|
>|-----------------|-------------|
>|-----------------|-------------|
>|---------0-------|-----0-------|
>|-0-2h3h4---3-2-0-|-3-4---3-2-0-|
>
>intro chords: Am, E 
>
>Chorus chords:
>
>And the Mercy Seat is waiting...
>
>-0----0----0----3----1----0----0----0----|
>-1----1----1----0----0----1----1----1----|
>-2----1----0----0----0----2----2----2----|
>-2----2----2----0----0----3----3----2----|
>-0----0----0----2----2----0----0----0----|
>-0----0----0----3----3----1---------0----|
>Am Ammag7 Am7  G     G7  F?  Fmag7  Am
>

The Chorus chords actually sound closer to this:

And the Mercy Seat is waiting...

-0----0----0----3----3----1----0----0----|
-1----1----1----0----3----3----1----1----|
-2----1----0----0----3----3----2----2----|
-2----2----2----0----5----3----3----2----|
-0----0----0----2----5----1----0----0----|
-0----0----0----3----3----1---------0----|
Am AmMaj7 Am7   G    Gm  Bb  Fmaj7  Am




Important: The song above is NOT stored on the Chordie server. The original song is hosted at www.roughstock.com. Chordie works as a search engine and provides on-the-fly formatting. Chordie does not index songs against artists/composers will. To remove this song please click here.

This song is displayed as text-only. Transposing and tuning is only available for chordpro-songs.

Login - add to songbook

Rating click stars to rate

Layout
Accuracy

SHARE PAGE  




You need to log in to post comments