""; ?> with pen in hand by Bobby Goldsboro - guitar chords, guitar tabs and lyrics - chordie

with pen in hand

Bobby Goldsboro



 C///CM7///Gm///C7///F///FM7///Dm7///G7///C///Bm///Am///Em///G11///Dm7///G7///G7///
C ----  CM7 --  Gm ---  C7 ---  F ----  FM7 --  Dm7 --  G7 ---

xx5553 xx5453 xx5333 xx5556 xx3565 xx3555 xx0211 xx3433
Bm ---  Am ---  Em ---  G11 --

xx4432 xx2210 xx2000 xx3533
With pen in hand you sign your name
Today at five I'll be on that train
And you'll be free and I will be alone
So alone
If you think we can find the love we once knew
If you think I can't make ev'rything up to you
Then I'll be gone and you'll be on your own
You'll be on your own
Can you take good care of Johnny
Can you take him to school everyday
Can you teach him how to catch a fish and keep all those bullies away
Hear what I say
Can you teach him how to whistle a tune
Can you tell him about the man in the moon
If you can do these things then maybe he won't miss me
Maybe he won't miss me
And tonight as you lay in that big lonely bed
And you look at the pillow where I laid my head
With your heart on fire will you have no desire to kiss me
And to hold me
And if you can forget the good times we had
If you think that the good time don't outweigh the bad
Then sign your name and I'll be on my way
I'll be on my way
 CCM7GmC7F
E|---|------------|------------|------------|------------|------------|
B|---|------------|------------|------------|------------|------------|
G|---|------------|------------|--0-----2---|2-0-------0-|2---------0-|
D|-0-|2---------0-|2---------2-|2-0-----0---|2-----------|------------|
A|---|------------|------------|1-----------|------------|------------|
E|---|------------|------------|------------|------------|------------|

| | | |_| | | |_| |_| | | |_| | |_| | | |_|
 FM7Dm7G7CBm
|------------|------------|------------|0-------0---|------------|
|------------|--1-----3---|3-1-------3-|------------|3---------3-|
|2-------2-0-|2-----------|------------|------------|------------|
|--------2---|3-3---------|3-----------|------------|------------|
|------------|------------|------------|------------|------------|
|------------|------------|------------|------------|------------|

| | |_| |_| | | |_| | |_| | | | | | |_|
Am | Em G11 Dm7 G7
|------------|------------|------------|------------|------------|
|1-----------|------------|------------|------------|------------|
|--------2---|0-----------|------------|------------|------------|
|------------|--------2---|2-0---------|--------2---|2-0---------|
|------------|------------|3-----------|--------0-3-|2-----------|
|------------|------------|------------|------------|------------|

| | | | | | |_| | | | | |_| |_| | |





Bm C C7 Cm7 Dm7 F Fm7 G7 Gm
variations - click chord images
Transpose chords:
Tuning:
Cool service:
View: Size:
A  A  A
Rating:
Layout:
  • Currently 2.7/5 Stars.
  • 1
  • 2
  • 3
  • 4
  • 5
 
Accuracy:
  • Currently 3.2/5 Stars.
  • 1
  • 2
  • 3
  • 4
  • 5
 
click stars to rate
Chordie recommends:
Learn how to play guitar at JamPlay.com
Songbook:
Login to add this song to your songbook
Support the artist
Preview/buy this song
MSN Music
Why this non-profit ad?

 
login to add comments/video/corrections