Guitar Tabs, Chords and Lyrics


Running Out Of Reasons2-crd  Rick Trevino

                          [G]                     [C]                      
Intro: Play twice:	|---------------------------------
			|---------------------------------
			|-0-2-2h4-----0-0-2-2h4-4-2-0-----
			|---------0-2-----------------2-0-
			|---------------------------------
			|---------------------------------

There's a [G]long stretch of blacktop underneath a cloudless sky
[D]There's my [Em]truck washed and gassed up, just [C]itchin' for a ride
If t[D]his had been six months ago I [C]know what I'd had done
But girl [G]I'm running out of [D]reasons to r[G]un.
Chorus:
I'm [D]running out of reasons, I've [C]lost that restless feeling
[D]Slowly I'm believing I'm [C]where I'm s'posed to be
When you [G]hold me I feel l[D]onely to [Em]chase that setting [C]sun
I'm [G]running out of [D]reasons to[G] run.
(solo-same as intro, but only once)
There you [G]stand smiling at me sunlight shining through your hair
[D]There's than [Em]door standing open with no [C]urge to go nowhere
I'm [D]finding all I've searched for in this [C]love that we've begun
But girl I'm[G] running out of [D]reasons to r[G]un
Chorus
Instrumental C, G, C, D, C (then I think a steel guitar plays something
like
this, except I play it on electric guitar:
                        [C]        [D]      [C]                              
$5[D]0$
		|---------------------8-8-8-7-7-7-5-5-5-----------------
		|---------------------------------------7-7-7-5---------
		|-----5-7-5-7-7/9-7-5---------------------------7-5-----
		|-5-7-----------------------------------------------7-5-
		|-------------------------------------------------------

chorus
intro solo about four times, then fade (G, C pattern)
Jason A. Wendtland

Important: The song above is NOT stored on the Chordie server. The original song is hosted at www.roughstock.com. Chordie works as a search engine and provides on-the-fly formatting. Chordie does not index songs against artists'/composers' will. To remove this song please click here.

Text color:
Chord color:
Chord grids: 
Font size:    
Page size: 

C D Em G
variations - click chord images

Login - add to songbook

Transpose chords

Tuning

Rating click stars to rate

Layout
Accuracy

SHARE PAGE  




You need to log in to post comments