Guitar Tabs, Chords and Lyrics


Indian Outlaw-tab   Tim McGraw




Subject: Indian Outlaw by Tim McGraw (Tab)

Indian Outlaw
Tim McGraw

Here is the tab I said I'd send. Enjoy.

Intro Lick:
E-----------------------------------------------------------------------
B-----------------------------------------------------------------------
G--------9-7-9--------4-2-4------2-0-2---3^4-2-0------ 9-7-9-------
D--------9-7-9--------4-2-4------2-0-2-------------2----9-7-9------
A-----------------------------------------------------------------------
E-----------------------------------------------------------------------

E-----------------------------------
B----------------------------------
G---4-2-4------2-0-2-0-----------
D---4-2-4------2-0-2-0-- 2-------
A--------------------------2-------
E-----------------------------------

Fill In For Verse (Listen for this or throw it in when you think it
sounds good)
E-------------------------
B-------------------------
G----9-7-9---------------
D----9-7-9---------------
A-------------------------
E-------------------------

Chorus
E------------------------------------------------
B------------------------------------------------
G----9-7-9-------4-2-4------2-0-2-0-----------
D----9-7-9-------4-2-4------2-0-2-0-- 2-------
A----------------------------------------2-------
E-------------------------------------------------

Guitar Part of Break 1
E-----------------------------------------------------------------------
B-----------------------------------------------------------------------
G----9----7--9----7--97-----------------------4-----------------------
D--------------------------9-9----7----5--7---------7-5---------------
A---------------------------------------------------------7-7-----------
E-----------------------------------------------------------------------
-

Break 2
E-----------------------------------------------------------------------
B-------------------8-8------------------------------------------------
G---7--9-9--7-9----------7--9-9--7-9--------------------------------
D----------------------------------------------------------------------
A--------------------------------------------5-7-7--5-7---------------
E-----------------------------------------------------------------------

Bridge
E-----------------------------------------------------------------------
B-----------------------------------------------------------------------
G---9-9------------- 9-9-----------------------9-9-9-7-9-9-9-7------
D---9-9-----9-9-----9-9--  9---9---9---9------9-9-9-7-9-9-9-7-----
A---7-7-----9-9-----7-7--  9---9---9---9------7-7-7-5-7-7-7-5-----
E------------7-7------------7---7---7---7-----------------------------

Outro - Same As Chorus

Lee Marshall - fhorn2002@hotmail.com
I take requests at this e-mail - chordtabrequest@hotmail.com



Important: The song above is NOT stored on the Chordie server. The original song is hosted at www.roughstock.com. Chordie works as a search engine and provides on-the-fly formatting. Chordie does not index songs against artists'/composers' will. To remove this song please click here.

This song is displayed as text-only. Transposing and tuning is only available for chordpro-songs.

Login - add to songbook

Rating click stars to rate

Layout
Accuracy

SHARE PAGE  




You need to log in to post comments