Guitar Tabs, Chords and Lyrics


My Best Friend2-crd  Tim McGraw

Intro Riff
* G G/F# G/F C/E C
|---------------|---------------------------------------
|-3-------------|-----3-------3-------3------1--------1-
|-2p0-----------|-----0-------0-------0------0--------0-
|------2p0------|-----0-------0-------0------2--------2-
|-----------2p0-|----------------------------3--3-3---3-
|---------------|-3-3-------2-2------1-1-----0-0--------

[G/B]            [D]     [Dsus]       [D]    [Dsus2]                                                      
-------------2-----3-----2----0--------|
-----0-------3-----3-----3----3-----3--|
-----0-------2-----2-----2----2--------|
-----0-------0-----0-----0----0--------|
-2-2------0-0--------------------------|
---------------------------------------|

(Intro riff from * can be played for the verses or just the chords)
[G]I never had [G/F#]no one [G/F] I could count [C]on
[G/B]I've been let down so many [D]times[Dsus] [D]
[G]I was tired of [G/F#]hurtin',[G/F]so tired of [C]searchin'
[G/B]'Til you walked into my [D]life
[C]It was a feelin' [G]I'd never known
[Am]and for the first time
C D (strum once)
I didn't feel alone
Chorus Am ...
|-----------------------|
|-----3-------3---------|
|-----0-------0---------|
|-----0-------0---------|
|-----------------------|
|-3-3-----2-2-----------|

You're [G]mo-[G/F#]--re than a [Am]lover
[G/B]And there could never be [Am]another
To [G/B]make me feel the [D]way you do
[G]Oh[G/F#],    we just get [Am]closer
[G/B]I fall in love all [Am]over
[G/B]Every time I [D]look at you
[D]I don't know were I'd be
[G]Without you here with me
Am G/B C N.C.
Life with you makes perfect sense
*
You're my best friend
(At * start intro from *)
You stand by me and believe in me
Like nobody ever has
When my world goes crazy
You're right there to save me
You make me see how much I have
And I still tremble when we touch
And, Oh, the look in your eyes
When we make love...
Chorus
G 320033 Am X02210
G/B X20033 D XX0232
G/F# 2X0033 Dsus XX0233
G/F 1X0033 Dsus2 XX0230
C X32010 C/E 032010

Important: The song above is NOT stored on the Chordie server. The original song is hosted at www.roughstock.com. Chordie works as a search engine and provides on-the-fly formatting. Chordie does not index songs against artists'/composers' will. To remove this song please click here.

Text color:
Chord color:
Chord grids: 
Font size:    
Page size: 

Am C D Dsus Dsus2 G G/B G/F G/F#
variations - click chord images

Login - add to songbook

Transpose chords

Tuning

Rating click stars to rate

Layout
Accuracy

SHARE PAGE  




You need to log in to post comments