Guitar Tabs, Chords and Lyrics


Sleep On It Tonight-tab  Tim McGraw

  [G]                        [C]                        [G]                         
|---------------------------------------------------
|-3-------3---------------3-------3-----------------
|-----------------2-4-2-------------------2-4-2-----
|---5-4-5---5-4-5-------5---5-4-5---5-4-5-------5---
|-------------------------------------------------5-
|---------------------------------------------------

[G]I got an empty feeling when that [C]moving van pulled up
[G]It got a whole lot emptier as I [D]watched them fill that truck
[G]And when they carried out your clothes it [C]took my breath away
[D]Now they're headed for that bed,[C] th[D]e thought keeps running through my
head
Chorus:
[G]Baby, maybe we could just [C]sleep on it tonight
And [D]give our hearts just one more [G]chance to change our minds
I could be wrong but girl [C]I just don't feel right
So [D]baby, [C]maybe we should just sl[G]eep on it tonight
Instrumental: play beginning solo
[G]I'll pay them boys to stop right now and leave that [C]truck out on the
curb
[G]The TV and the phone's packed up, so [D]we won't be disturbed
[G]There's not a light left in this room, just a [C]shadow of a doubt
[D]So let's make sure we don't give up[C]   [D] before we've thought this through
enough
Chorus D C
Chorus-at end "baby, maybe" say 3 times instead of once, then finish
with solo
Solo/Instrumental:
  [G]                        [C]                                                 
|----------------------------------------
|-3-------3---------------3-------3------	play this three times, then

fade
|-----------------2-4-2------------------
|---5-4-5---5-4-5-------5---5-4-5---5-4-5
|----------------------------------------		Jason A. Wendtland
|----------------------------------------


Important: The song above is NOT stored on the Chordie server. The original song is hosted at www.roughstock.com. Chordie works as a search engine and provides on-the-fly formatting. Chordie does not index songs against artists'/composers' will. To remove this song please click here.

Text color:
Chord color:
Chord grids: 
Font size:    
Page size: 

C D G
variations - click chord images

Login - add to songbook

Transpose chords

Tuning

Rating click stars to rate

Layout
Accuracy

SHARE PAGE  




You need to log in to post comments