Guitar Tabs, Chords and Lyrics


Take Me Away From Here-tab   Tim McGraw




Subject: Take Me Away From Here (Guitar Solos) by Tim McGraw

Take Me Away From Here (Guitar Solos) by Tim McGraw
Off the CD: Set This Circus Down
Key of (E) - Standard Tuning
 
Here is a great solo for a great song.  You can also find this song on the Driven Soundtrack.  I can't believe it did not become a single!  The solos are broken into 4 sections as follows:
 
1st Solo
2:25 on CD
 
|-------------------------------------------------------------------------------
|-------------------------------------------------------------------------------
|-9-9-9-9-9--8--6--4--------^(full)---------------^------------^----------
|---------------------------6-7-9-9--------18-20-21---------21-19-17-
|---------------------------------------77-----------------19-----------------
|--------------------------------------------------------------------------------
 
2nd Solo
3:31 on CD
 
|------------------------------------------------------------------------------------
|------------------------------------------------------------------------------------
|-9-9-9-9-9--8--6--4--------^(full)---------------^-------------------------^-
|---------------------------6-7-9-9--------18-20-21---------14-16-14-16-
|---------------------------------------77-----------------19---------------------
|------------------------------------------------------------------------------------
 
3rd Solo
3:44 on CD
 
|------------------------------------------------------------------------------------
|------------------------------------------------------------------------------------
|-9-9-9-9-9--8--6--4--------^(full)---------------^-------------------------^-
|---------------------------6-7-9-9--------18-20-21---------14-16-14-16-
|---------------------------------------77-----------------19---------------------
|------------------------------------------------------------------------------------
 
4th Solo
3:57 on CD
 
|-------------------------------------------------------------------------------
|-------------------------------------------------------------------------------
|-9-9-9-9-9--8--6--4--------^(full)---------------^------------^----------
|---------------------------6-7-9-9--------18-20-21---------21-19-17-
|---------------------------------------77-----------------19-----------------
|--------------------------------------------------------------------------------
 
After this the solo plays but it fades out, just use this same pattern.
 



Important: The song above is NOT stored on the Chordie server. The original song is hosted at www.roughstock.com. Chordie works as a search engine and provides on-the-fly formatting. Chordie does not index songs against artists'/composers' will. To remove this song please click here.

This song is displayed as text-only. Transposing and tuning is only available for chordpro-songs.

Login - add to songbook

Rating click stars to rate

Layout
Accuracy

SHARE PAGE  




You need to log in to post comments