Guitar Tabs, Chords and Lyrics


When She Wakes Up-tab   Tim McGraw




Subject: When She Wakse Up & Finds Me Gone (Guitar Solo) by Tim McGraw

When She Wakes Up (And Finds Me Gone) 1st Guitar Solo by Tim McGraw
From CD: All I Want 1995
 
This solo is in the key of (F#/Gb) with no capo.  If you let theÊtrack play after the song is over, you will find a super solo probably done by Dann Huff that is a couple of minutes long.  I did not tab this part, but I did tab the 1st solo of the song.
 
E |---------------------------------------------------------------------------------------------------------------------------
B |-----------------------------------------------------------------------------------^-------------^-------------------------
G |----------------------------------------------------------------------18----20----20----18----18----16----16----
D |------------------16----18----16----16----18----18----20---------------------------------------------------------
A |----16----18------------------------------------------------------------------------------------------------------------
E |---------------------------------------------------------------------------------------------------------------------------
 
E |---------------------------------------------------------------------------------------------------------------------------
B |--------------------------------------------------------------------------------------------------------------------------
G |------------------------------^-------------------------------------------------------------------------------------------
D |------------------20----18----18----16----18-----------------------------------------------------------------------
A |---------------------------------------------------------------------------------------------------------------------------
E |---------------------------------------------------------------------------------------------------------------------------
 



Important: The song above is NOT stored on the Chordie server. The original song is hosted at www.roughstock.com. Chordie works as a search engine and provides on-the-fly formatting. Chordie does not index songs against artists'/composers' will. To remove this song please click here.

This song is displayed as text-only. Transposing and tuning is only available for chordpro-songs.

Login - add to songbook

Rating click stars to rate

Layout
Accuracy

SHARE PAGE  




You need to log in to post comments