Chordie logo

Way Beyond Empty-crd  Zakk Wylde

[D]                 [G]                                                  
-3--2--0--2---------------3---------------------
-3--3--3--3------------------------------------
-2--2--2--2----------0-------0-----------------
------------------------0-------0--------------
--------------------------------------------
---------------0--3---------------------------

INTRO: Riff A 2x's
w/ Riff A
If I could I surely would
Child ease your pain
But if I could no longer
Would you still know my name?
If I couldn't drain the tears
That pour from these eyes
[D]Would you turn your [Em]back on me
[G]Would you wave good bye
CHORUS;
Or leave me,
[D]Way beyond [F#m]empty in[G]side
Awaiting my last day to arrive
Way beyond empty inside
Awaiting my end to arrive
w/ Riff A
If I couldn't be the shoulder
Which your head would rest upon
would you still be waiting
Or would you be gone?
If I couldn't keep the smile
Forever on your face
[D]Would I still [Em]be around
Or [G]would I be replaced?
CHORUS
Riff B
------------------------------------------2-0-0-2-2-2-3-2-2--
------------------------------------------3-3-3-3-3-3-3-3-3--
---3-----5----2----3-----5-----2----------2-2-2-2-2-2-2-2-2--
-------------------------------------5----0-0-0-0-0-0-0-0-0--
-1—--1-3—--3--0--1---1-3---3-0---0---------------------------
-----------------------------------3---3---------------------

w/ Riff B
Oh Oh Oh
Oh Oh Oh Oh Oh
Oh Oh Oh
Oh Oh Oh Oh Oh (Just end on D)
Solo (D, F#m, G 4x)
Riff A 2x's
w/ Riff A
Would you promise me
That things would never change
Could you promise me
That things they'd stay the same
If I couldn't clear the clouds
From over your head
[D]Would you keep your [Em]word to me
Amongst [G]all the things you said?
CHORUS
D, F#m, G until it fades out

Important: The song above is NOT stored on the Chordie server. The original song is hosted at www.roughstock.com. Chordie works as a search engine and provides on-the-fly formatting. Chordie does not index songs against artists/composers will. To remove this song please click here.

D Em F#m G
variations - click chord images

Login - add to songbook

Transpose chords

Tuning

Rating click stars to rate

Layout
Accuracy

SHARE PAGE  



You need to log in to post comments