"yes"; ?> A Case of You by Joni Mitchell - guitar chords, guitar tabs and lyrics - chordie

A Case of You

Joni Mitchell


 CG2
 Just before our love got lost you said
 Am7
 I am as constant as a northern star and I said
 DmCG2
 Constantly in the darkness, where's that at?
 Am7G
If you want me I'll be in the bar
 CG2
On the back of a cartoon coaster
 Am7
 In the blue TV screen light
 DmC
 I drew a map of Canada
 CG2Am7
Oh  Ca - na - da
 DmCG2
 With your face sketched on it twice
 FEm
 Oh, you're in my blood like holy wine
 DmC
 You taste so bitter and so sweet

 CCG2Am7
Oh, I could drink a case of you darling and I would
 DmCG2C
 still be on my feet, oh I would still be on my feet

C F Am G Am, FF FF, EmEm EmEm, Dm CC, G2G2 C Am7 Am7 GG G Am7 G2G2 G2G2 gg

Oh I am a lonely painter
I live in a box of paints
I'm frightened by the devil
And I'm drawn to those ones that ain't afraid
I remember that time you told me, you said love is touching souls
Surely you touched mine 'cause
Part of you pours out of me
In these lines from time to time
Oh, you're in my blood like holy wine
Taste so bitter and so sweet
Oh, I could drink a case of you darling
Still I'd be on my feet
 intro progression
I would still be on my feet 

I met a woman, she had a mouth like yours
She knew your lies
She knew your devils and your deeds, and she said
Go to him, stay with him if you can
But be prepared to bleed
Oh but you are in my blood, you're my holy wine
You're so bitter, baby
Bitter and so sweet
Oh I could drink a case of you darling
Still I'd be on my feet
 intro progression
I would still be on my feet 

CHORDS:
C: x3x05x
F: x8x0Ax (A=10)
Am: xCx0Dx (C=12, D=13)
G: xAx0Cx (A=10)
Em: x7x08x
Dm: x5x06x
Am7:x0x01x
G2: x2x03x
G3: 3xx00x

INTRO:
    C    F     Am    G Am  F               Em          Dm  C 
 e||-------------------------------------------------------------
 B||-5---10----13---12-13--10-10---10-10---8--8---8-8--6---5-5-3-
 G||-0----0-----0----0--0---0--0----0--0---0--0---0-0--0---0-0-0-
 D||-------------------------------------------------------------
 A||-3----8----12---10-12---8--8----8--8---7--7---7-7--5---3-3-2-
 E||-------------------------------------------------------------


      G  C  Am7     G  G  Am7 G G  G G     
  e|---------------------------------------
  B|--3--5---1---1--h0-0--1---3-3--3-3-----
  G|--0--0---0---0--0--0--0---0-0--0-0--0-0
  D|---------------------------------------
  A|--2--3---0---0--------0---2-2--2-2-----
  E|----------------3--3-------------------




Am7 C Dm Em F G G2
variations - click chord images
Transpose chords:
Tuning:
Cool service:
View: Size:
A  A  A
Rating:
Layout:
  • Currently 2.5/5 Stars.
  • 1
  • 2
  • 3
  • 4
  • 5
 
Accuracy:
  • Currently 2.6/5 Stars.
  • 1
  • 2
  • 3
  • 4
  • 5
 
click stars to rate
Chordie recommends:
Learn how to play guitar at JamPlay.com
Songbook:
Login to add this song to your songbook
Support the artist
Preview/buy this song
MSN Music
Why this non-profit ad?

 
login to add comments/video/corrections