5:15

Who



 Em/G379733Am/G377533G11357533
                                                               Cmaj7              3
G (E5) 355xxx or 3557xx
G6 (E6) 375xxx
F (D) x3356x or xx3565
C (A) x3555x and x35588
C7 x38388
FII(add4) x37368
Fadd9 x33563
Bb6/D (G6/B) x53363
Csus4 x3556x
 Intro
 guitar 1
|Fmaj7/G |G7 |Em/G |Am/G |G11 |G |Cmaj7 | |
|---------|--------|-------|-------|-------|-----------|--------|-----------|
|---------|--------|-------|-------|-------|-----------|5-------|-----------|
|-9---9--\|-7-7----|-7-7--\|-5-5---|-5-5---|-4-4-------|4-------|--4--4--4--|
|5--5-----|5-5-----|5-5----|5-5----|5-5----|5-5--------|5-------|--5--5--5--|
|---------|--------|-------|-------|-------|------3x-3x|3-------|--------3-3|
|---------|-----3-3|-------|-------|----3-3|-----------|--------|-----------|

|Fmaj7/G |G7 |Em/G |Am/G |
Why should I care? Why should I care?
|--------------------|----------------|----------------|----------------|
|--------------------|----------------|----------------|----------------|
|---------9--9--9--9-|7-7-7-7-7-7-7-7-|7-7-7-7-7-7-7-7-|5-5-5-5-5-5-5-5-|
|---10-10-10-10-10-10|9-9-9-9-9-9-9-9-|9-9-9-9-9-9-9-9-|7-7-7-7-7-7-7-7-|
|8--8--8--8--8--8--8-|8-8-8-8-8-8-8-8-|7-7-7-7-7-7-7-7-|7-7-7-7-7-7-7-7-|
|--------------------|----------------|----------------|----------------|

 palm mute
|G11 |G |C | |
 guitar 1
|                                                             |
|-----------------------|------------------|-------------|--------------|
|-----------------------|------------------|-------------|--------------|
|5--5--5--5--5--5--5--5-|4-4-4-4-4-4-4--4--|5------------|----5-5-5-5---|
|7--7--7--7--7--7--7--7-|5-5-5-5-5-5-5--5--|5------------|--5-5-5-5-5---|
|5--5--5--5--5--5--5--5-|5-5-5-5-5-5-5--5--|3-----------3|3-3-3-3-3-3---|
|-----------------------|------------------|-------------|--------------|

 guitar 2
|                                                             |
|-----------------------|------------------|-------------|--------------|
|-----------------------|------------------|-------------|--------------|
|19\17-17\16-16\14-14\12|12\10-10\9-9\7-7/9|9-------<----|--------------|
|-----------------------|------------------|-------------|--------------|
|-----------------------|------------------|-------------|--------------|
|-----------------------|------------------|-------------|--xxxxxx------|

 vol swell
|                                                            |
 guitar 3
|                                                             |
|19\17-17\15-15\13-13\12|12\10-10\8-8\7-7/8|8------------|--------------|
|-----------------------|------------------|-------------|--------------|
|-----------------------|------------------|-------------|--------------|
|-----------------------|------------------|-------------|--------------|
|-----------------------|------------------|-------------|--------------|
|-----------------------|------------------|-------------|--------------|

 for one guitar; stage versions
|G11 |G |C
|15\13--13\12--12\10--10\8---|-8\7---7\5---5\3---7---|7/8----
|17\15--15\13--13\12--12\10--|10\8---8\6---6\5---5p3-|-5-----
|----------------------------|-----------------------|-------
|----------------------------|-----------------------|-------
|----------------------------|-----------------------|-------
|----------------------------|-----------------------|-------

x3
||:G |G C :||G |G C |
 gtr 1
||                                                                   |
||----------------------|--------------||---------------------|-------------|
||----------------------|--------------||---------------------|-------------|
||.------5-3-h4p3h4p3h4-|----3---5-5--.||------5-3-h4p3h4p3h4-|----3-----5--|
||.5-5-3-5-3------------|5-5-3---5-5--.||5-5-3-5-3------------|5-5-3-----5--|
||-5-5-3----------------|5-5---7-3-----||5-5-3----------------|5-5---7-3----|
||----------------------|--------------||---------------------|-------------|

|| G5 G5 ||G5 G5 |
 gtr 2
||                                                                   |
||----------------------|--------------||---------------------|3------------|
||----------------------|--------------||--------------------/|8------------|
||.---------------------|----------7-7.||---------------------|-------------|
||.---------------------|----------5-5.||---------------------|------xxx----|
||-5--------------------|----------5-5-||5--------------------|------xxx----|
||-3--------------------|----------3-3-||3--------------------|-----------3-|

 verse
|G G6 G G6 |G G6 G G6 |
Girls of fifteen, sexually knowing (the)
 gtr 1
|                               |
|-----------------|--------------------|
|---------3-----3-|------3------------6|
|---------5-----5-|------5------------5|
|5-----5--5--5--5-|5--5--5--5---5-----3|
|5-----5--7--5--7-|5--5--7--5---7-----3|
|3-----3--3--3--3-|3--3--3--3---3---3--|

 gtr 2
|                               |
|-----------------|--------------------|
|-----------------|--------------------|
|-----------------|--------------------|
|-----------------|--------------------|
|-----------------|--------------------|
|(3)--------------|--------------------|

|F C |G G6 G G6 |
The ushers are sniffing, eau-du-cologning (the)
 gtr 1
   |                                    |
   |--------------------|----------------------|
   |--------------------|----------------------|
   |-----------5--------|----------------------|
   |-----------5--------|5---5--5--5--5--------|
   |-----------3--------|5---5--7--5--7------5-|
   |--------------------|3---3--3--3---------3-|

|G G6 G G6 |G G6 G G6 |
The seats are seductive, celibate sitting
 gtr 1
   |                                 |
   |--------------------|-------------------|
   |--------6-------5---|------------------6|
   |--------7-------5---|------------------5|
   |5----5--5---5---5---|5-5------5--------3|
   |5----5------5---7---|5-5-7----5---7----3|
   |3----3------3---3---|3-3-3----3---3--3--|

|F C |G G6 G G6 |
Pretty girls digging prettier women
 gtr 1
      |                        |
      |-------------|-----------------|
      |------8------|-----------------|
      |------5------|-----------------|
      |------5------|5---5------------|
      |------3------|5---5--7--5--7---|
      |-------------|3---3--3--3------|

||: C7 FII(add4)| C7 FII(add4):||
Magically bored on a quiet street corner
 gtr 1
||                                       ||
||----8----------8-----|-----8------------8-----||
||------8----------6---|-------8------------6---||
||.-------3----------3-|---------3------------3.||
||.7/8-------8\7-------|7/8----------8\7-------.||
||---------------------|------------------------||
||---------------------|------------------------||

 gtr 3
||                                       ||
||------12-------13----|----12-----------13-----||
||----13-13-----13-13--|--13--13-------13--13---||
||.-12-----12-/14---14-|12------12--/14------14.||
||.--------------------|-----------------------.||
||---------------------|------------------------||
||---------------------|------------------------||

|C7 Fadd4 |C7 Fadd4 |
Free frustration in our minds and our toes
|C7 Fadd4 |C7 Fadd4 |
Quiet storm-water m-m-my generation
|C7 Fadd4 |C5 |G...
Uppers and downers, either way blood flows
|-----8--------8--|----8----8-----------|
|------8--------6-|---8-----8-----------|
|-------3--------3|---------3-----------|
|7/8-------8\7----|7/8------8-----------|
|-----------------|---------------------|
|-----------------|---------------------|

 gtr 3
                  |              |
|--12--------13---|----3----------------|
|-13-13----13--13-|---------------------|
|12---12-/14----14|12-------3-----------|
|-----------------|---------------------|
|-----------------|---------------------|
|-----------------|---------------------|

|G |G C |G |G C |
 gtr 1
|                                                                |
|---------------------|-------------|---------------------|-------------|
|---------------------|-------------|---------------------|-------------|
|------5-3-h4p3h4p3h4-|----3---5-5--|------5-3-h4p3h4p3h4-|----3-----5--|
|5-5-3-5-3------------|5-5-3---5-5--|5-5-3-5-3------------|5-5-3---5-5--|
|5-5-3----------------|5-5---7------|5-5-3----------------|5-5---7-3-3--|
|---------------------|-------------|---------------------|-------------|

|G5 G5 |G5 G5 |
 gtr 2
|                                                                |
|---------------------|-------------|---------------------|-------------|
|---------------------|-------------|---------------------|-------------|
|7--------------------|-------------|7--------------------|-------------|
|5--------------------|-------------|5--------------------|------xxx----|
|5--------------------|-------------|5--------------------|------xxx----|
|3--------------------|-------------|3--------------------|-----------3-|

|G |G C |G |G C |
 gtr 1
|                                                                |
|---------------------|--------8-8--|---------------------|-------------|
|---------------------|--------8-8--|---------------------|-------------|
|------5-3-h4p3h4p3h4-|----3---5-5--|------5-3-h4p3h4p3h4-|----3---5----|
|5-5-3-5-3------------|5-5-3-----5--|5-5-3-5-3------------|5-5-3---5----|
|5-5-3----------------|5-5---7---3--|5-5-3----------------|5-5-3-7-3----|
|---------------------|-------------|---------------------|-------------|

|G5 G5 |G5 G5 |
 gtr 2
|                                                                |
|---------------------|-------------|---------------------|3------------|
|---------------------|-------------|--------------------/|8------------|
|7--------------------|----------7-7|---------------------|-------------|
|5--------------------|----------5-5|---------------------|------xxx----|
|5--------------------|----------5-5|5--------------------|------xxx----|
|3--------------------|----------3-3|3--------------------|-----------3-|

|Fadd9 Bb6/D |Fadd9 Bb6/D ||
(Inside outside) leave me alone
 gtr 1
|                        ||
|---------------|---------------||
|---6------6-6--|---6------6-6--||
|-5--5--------3-|-5--5--------3.||
|3-3--3---3-----|3-3--3---3----.||
|------3h5------|------3h5------||
|---------------|---------------||

||:Fadd9 Bb6/D |Fadd9 Bb6/D :||
(Inside outside) Nowhere is home
 gtr 1
||                         ||
||----------------|---------------||
||----6-------6---|---6-------6---||
||.-5--5-----3-3--|-5--5-----3-3-.||
||.3-3--3---3-----|3-3--3---3----.||
||-------3h5------|------3h5------||
||----------------|---------------||

|Fadd9 Bb6/D |Fadd9 Bb6/D |
(Inside outside) Where have I been
|F |Csus4 |G |G |
Out of my brain on the five- fifteen (Out of my)
 gtr 1
|                                                             |
|----------------------|---------------|-------------|-----------------|
|6--6--6--6--6--6--6-6-|6-6-6-6-6-6-6-6|-------------|----------------6|
|5--5--5--5--5--5--5-5-|5-5-5-5-5-5-5-5|-------------|----------------5|
|3--3--3--3--3--3--3-3-|5-5-5-5-5-5-5-5|5-5-----5----|5-5-----5---5-3-3|
|3--3--3--3--3--3--3-3-|3-3-3-3-3-3-3-3|5-5--7--5h7--|5-5--7--5h7-5-3-3|
|----------------------|---------------|3-3--3--3----|3-3--3--3---3----|

 gtr 2
|                                                               |
|5------/8----------/12|---------------|<15>---------|-----------------|
|6--------10-----------|13---/-17-\15--|<15>---------|------3----------|
|----------------------|---------------|-------------|--------------5--|
|----------------------|---------------|-------------|--------------3--|
|----------------------|---------------|-------------|--------------3--|
|----------------------|---------------|---------15\-|3-----------8\---|

|F C |G |
Out of my brain on the train
         |------8------|----------------|
         |------8------|----------------|
         |------5------|----------------|
         |------5------|5-5--------5---5|
         |------3-----5|5-5---7----5h7-5|
         |------------3|3-3---3----3---3|

| |
         |-------------|----------------|
         |6------------|--------------3-|
         |5-----5------|--------------5^|
         |3-----5------|---5/5/5/5/5/5--|
         |3-----3--3---|----------------|
         |------------3|----------------|

|G | |F C |G |
Outta my brain on the train on the train
 gtr 1
|                                                                      |
|-------------------|-------------------|------------------|------------------|
|-------------------|------------------6|-------8----------|------------------|
|-------------------|------5-----------5|-------5----------|------------------|
|5---5-----5--\-----|5--5--5-----5--\--3|-------5----------|5-5-----5---------|
|5---5--7--5h7\-----|5--5--7-----5h7\--3|-------3---------5|5-5--7--5h7-------|
|3---3--3--3--------|3--3--3-----3----3-|-----------------3|3-3--3--3--------3|

 gtr 2
|                                                                      |
|----------------3--|-------------------|------------------|------------------|
|-----------------/8|---8-8--8/8/8/8-8/8|8/8/--------------|------------------|
|5^\p3-3h5-3--------|-------------------|-----10/12-12/12--|12------12\-------|
|-----5-----5-3h5---|-------------------|------------------|------------------|
|-------------------|-------------------|------------------|--------10\-------|
|-------------------|-------------------|------------------|--------------8\--|

 verse 2
|G G6 G G6 |G G6 G G6 |
A raft in the quarry, slowly sinking
 gtr 1
 |                                 |
 |-------------------|--------------------|
 |-------------------|------3------3------|
 |---------5-----5---|------5------5------|
 |5-----5--5--5--5---|5--5--5--5---5------|
 |5-----5--7--5--7---|5--5--7--5---7------|
 |3-----3--3--3--3---|3--3--3--3---3----3-|

 gtr 2
 |                                 |
 |-------------------|3-------------------|
 |-------------------|3h8-----------------|
 |-------------------|7-------------------|
 |5------------------|--------------------|
 |5------------------|--------------------|
 |3------------------|--------------------|

|F C |G G6 G G6 |
Back of a lorry, holy hitching
|G G6 G G6 |G G6 G G6 |
Dreadfully sorry, apple scrumping
|F C |G G6 G G6 |
Born in a war, birthday punching
|C7 Fadd4 | C7 Fadd4 |
He-man drag in a glittering ballroom
 gtr 1
|                              |
|---8-------8---|-----8----------8----|
|----8-------6--|-------8----------6--|
|-----3-------3-|---------3---------3-|
|7/8----8\7-----|7/8--------8\7-------|
|---------------|---------------------|
|---------------|---------------------|

 gtr 3
|                              |
|--12------13---|----12---------13----|
|-13-13---13-13-|--13--13------13-13--|
|12---12/14---14|12------12--/14----14|
|---------------|---------------------|
|---------------|---------------------|
|---------------|---------------------|

|C7 Fadd4 |C7 Fadd4 |
Greyly outrageous in my high-heeled shoes
 gtr 1
|                                      |
|---8----------8--------|---------------------|
|-----8---------6-------|---------------------|
|-------3--------3------|7^-7^---7^--7---5~---|
|7/8-------8\7----------|---------------------|
|-----------------------|--------------------3|
|-----------------------|---------------------|

 gtr 3
|                                      |
|----12---------13------|----12---------13----|
|--13-13------13--13----|--13--13-----13--13--|
|12-----12-/14------14--|12-----12-/14-----14-|
|-----------------------|---------------------|
|-----------------------|---------------------|
|-----------------------|---------------------|

|C7 Fadd4 |C7 Fadd4 |
Tightly undone, they know what they're showin'
 gtr 1
|                                           |
|---8----------8------|-----8------------------8---|
|-----8---------6-----|-------8-----------------6--|
|-------3--------3----|---------3----------------3-|
|7/8-------8/7--------|7/8--------------8/7--------|
|---------------------|----------------------------|
|---------------------|----------------------------|

 gtr 3
|                                           |
|--12--------13-------|----12-------------13-------|
|-13-13-----13-13-----|--13--13---------13--13-----|
|12---12--/14---14----|12------12----/14------14---|
|---------------------|----------------------------|
|---------------------|----------------------------|
|---------------------|----------------------------|

|C7 Fadd4 |C7 F7 |G...
Sadly ecstatic that their heroes are news
 gtr 1
|                                   |
|-------------------------|----------------|
|-------------------------|----------------|
|7^-7-7p5--5~---5---------|5/5/5/5/5/5---5-|
|--------7----------------|----------------|
|-------------------------|----------------|
|-------------------------|----------------|

 gtr 3
|                                   |
|----12---------13--------|--13------------|
|--13-13------13--13------|-13-13----------|
|12-----12-/14------14----|12---12---------|
|-------------------------|----------------|
|-------------------------|----------------|
|-------------------------|----------------|

 gtr 2
|                                   |
|-------------------------|----------------|
|-------------------------|----------------|
|-------------------------|----------------|
|-------------------------|----------------|
|-------------------------|-------------3--|
|-------------------------|-------xxxxx----|

|G |G C |G |G C |
(news)
 gtr 1
|                                                              |
|---------------------|----------8-|---------------------|--------8-8-|
|---------------------|--------8-8-|---------------------|--------8-8-|
|------5-3-h4p3h4p3h4-|----3---5-5-|------5-3-h4p3h4p3h4-|----3---5-5-|
|5-5-3-5-3------------|5-5-3---5-5-|5-5-3-5-3------------|5-5-3---5-5-|
|5-5-3----------------|5-5---7-----|5-5-3----------------|5-5---7-----|
|---------------------|------------|---------------------|------------|

 gtr 2
|                                                              |
|---------------------|------------|---------------------|------------|
|---------------------|------------|---------------------|------------|
|---------------------|------------|7--------------------|------------|
|5~-------------------|------------|5--------------------|------------|
|---------------------|------------|5--------------------|------------|
|---------------------|------------|3--------------------|------------|

|G |G C |G |G C
 gtr 1
|                                                              |
|---------------------|----------8-|---------------------|------------|
|---------------------|----------8-|---------------------|------------|
|------5-3-h4p3h4p3h4-|----3---5-5-|------5-3-h4p3h4p3h4-|----3---5-~-|
|5-5-3-5-3------------|5-5-3---5-5-|5-5-3-5-3------------|5-5-3---5-~-|
|5-5-3----------------|5-5---7-3---|5-5-3----------------|5-5---7-3-~-|
|---------------------|------------|---------------------|------------|

 gtr 2
|                                                              |
|3--------------------|------------|3--------------------|------------|
|3--------------------|------------|3--------------------|------------|
|12~------------------|--------x-x-|7~-------------------|------------|
|12~------------------|--------x-x-|5~-------------------|------------|
|10~------------------|--------x-x-|5~-------------------|------------|
|3--------------------|------------|3--------------------|------------|

|Fadd9 Bb6/D ||:Fadd9 Bb6/D:||
(Inside outside) leave me alone
 gtr 1
|                        ||
|---3----------||---------------||
|--6-6------6--||----6------6-6-||
|-5---5----3-3-||.-5--5--------3||
|3--------3----||.3-3--3---3---.||
|------3h5-----||-------3h5-----||
|--------------||---------------||

|Fadd9 Bb6/D |Fadd9 Bb6/D |
(Inside outside) Nowhere is home
|Fadd9 Bb6/D |Fadd9 Bb6/D |
(Inside outside) Where have I been
|F |Csus4 |G |G |
Out of my brain on the five- fifteen (Out of my)
 gtr 1
|                                                                |
|----------------------|---------------|--------------|-----------------|
|6--------6--6--6--6-6-|---------------|--------------|-----3----------6|
|5--------5--5--5--5-5-|5-5-5-5-5-5-5-5|--------------|-----5----------5|
|3-----------3--3--3-3-|5-5-5-5-5-5-5-5|5----5--5---8^|5-5--5--5-----3-3|
|3-----------3--3--3-3-|3-3-3-3-3-3-3-3|5----7--5-7---|--5--7--5-7---3-3|
|----------------------|---------------|3----3--3-3---|--3--3--3-3-3----|

 gtr 2
|                                                                |
|5------/8----------/12|---------------|3-------------|-----------------|
|6--------10-----------|13---/-17------|3-------------|------3----------|
|----------------------|-------------19|19~~----------|----------------5|
|----------------------|---------------|--------------|----------------3|
|----------------------|---------------|--------------|----------------3|
|----------------------|---------------|--------xxxxxx|3-3--------------|

|F C |G |
Out of my brain on the train
 gtr 1
         |                       |
         |-------------|----------------|
         |------8------|-----5^-3-5^-3--|
         |------5------|-----5^-3-5^-3--|
         |------5------|5-------------8^|
         |------3-----5|5---------------|
         |------------3|3---------------|

 gtr 2
         |                       |
         |------8------|---------------3|
         |6-----8------|-----5---------3|
         |5-----5------|-----5^\-3------|
         |3-----5------|----------5-3---|
         |3-----3------|----------------|
         |-------------|----------------|

|G | |
Outta my brain on the train on the train,
 gtr 1
|                                      |
|-----------------------|---------------------|
|-----------------------|--------------------6|
|-----------------------|--------------------5|
|5---5-----5------------|5--5--------5-------3|
|----5--7--5---7--------|5--5--7-----5--7-5--3|
|----3--3--3---3--------|3--3--3-----3--3-3-3-|

 gtr 2
|                                      |
|----3/3/3-3--3----3----|---3--------3-3-3----|
|------------------3----|--/8--8-8---8-6-3----|
|------------------x----|-------------------5^|
|------------------x----|---------------------|
|-----------------------|---------------------|
|---------------------3-|---------------------|

|F C |G |
Wow, I'm outta my brain Whoo
 gtr 1
 |                                  |
 |-------8------------|--------------------|
 |-------8------------|--------------------|
 |-------5------------|-------5^-5p3-3-5p3-|
 |-------5------------|5-5----------5------|
 |-------3-----------5|5-5--7--------------|
 |-------------------3|3-3--3--------------|

 gtr 2
 |                                  |
 |--------------------|--------------------|
 |--------------------|--------------------|
 |\-3-5-3-------------|-------3-5^\p3-5~-3-|
 |---5---5-3----------|5-3-3-5------------5|
 |----------5-3--3----|---5----------------|
 |-------------6^-6^-3|--------------------|

|G | |F C |G |
Out of my brain on the train Here it
 guitar 1
|                                                               |
|---------------|------------------|-------------------|-------------3----|
|---------------|-----------------6|---------8---------|-------------3----|
|5^-------------|-----------------5|---------5---------|------------------|
|---5-----5-----|5-5------5-------3|---------5---------|5-5----5---------5|
|---5--7--5--7--|5-5--7---5---7---3|---------3--------5|5-5--7-5-7-------5|
|---3--3--3--3--|3-3--3---3---3--3-|------------------3|3-3--3-3-3-------3|

 guitar 2
|                                                               |
|----3x---------|-------3----------|--6-8^-3-8^-8-6x-8^|---6-----------3--|
|---------------|-------3--3-8~-8--|8------------------|-----8~--------3--|
|5^(7)---5^\p3--|5p3----5^---------|-------------------|------------------|
|---------------|---5--------------|-------------------|------------------|
|---------------|------------------|-------------------|------------------|
|---------------|------------------|-------------------|------------------|

|G |
comes
 gtr 1
| 
|------------------------|------------------------------|
|------------------------|-----------------------------6|
|------------------------|---------------------------5-5|
|5--5--------5-----------|5-----5----5---------------3-3|
|5--5--7-----5-------7---|5-----5--7-5---7-----------3-3|
|3--3--3-----3-------3---|3-----3--3-3---3--------------|

 gtr 2
| 
|------------------------|------------------------------|
|------15----------------|15^(17)-(^)15-15~~-----15^\-13|
|14^(16)-(^)14\-12-14^\12|------------------------------|
|------------------------|------------------------------|
|------------------------|------------------------------|
|------------------------|------------------------------|

|F C |G |
Whoo, out of my brain On the train
|
|-----------------|-----3-3---------|
|-------8---------|-----3-3---------|
|-------5---------|-----7-7---------|
|-------5---------|5-5----5---------|
|-------3--------5|5-5----5---------|
|----------------3|3-3--3-3--------3|

| |
|-----------------|---------16-16-16|
|15^\-13----------|-----------------|
|------14^\-12-14^|--12-12~---------|
|-----------------|-----------------|
|-----------------|-----------------|
|-----------------|-----------------|

|G |F C |G |
On the train Out of my brain on the train
 gtr 1
|                                                                    |
|----------------|-----------------|---------------------|---3--------------|
|----------------|-----3-----------|6---------8----------|/8-8-7-5-3--------|
|----------------|-----7-----------|5---------5----------|-----------3-4^---|
|5--5---------5--|-----------------|3---------5----------|-----------------5|
|5--5--7^-----5-7|5-5------5---7^-5|3---------3----------|------------------|
|3--3--3------3-3|3-3----3-3---3--3|---------------------|------------------|

 gtr 2
|                                                                    |
|15\--15\-----15\|---15\---15\-----|15-13-13-12-12--10--8|-----------------3|
|----------------|3------3-----3---|---------------------|8-10^\----6--6/8--|
|----3-----------|-----------------|---------------------|------------------|
|----------------|-----------------|---------------------|------------------|
|----------------|-----------------|---------------------|------------------|
|----------------|-----------------|---------------------|------------------|

|G | |F C |G |
 gtr 1
|                                                         |
|-------------|------------------|---------------|---------------|
|-------------|-----------------6|---------------|---------------|
|-------------|---------------5-5|-------5-------|---------------|
|(5)----------|--5------5-----3-3|-------5-------|5-5----5---7^--|
|----7--5-7---|5-5--7---5---7-3-3|-------3------5|5-5--7-5-7-----|
|----3--3-3---|3-3--3---3---3----|--------------3|3-3--3-3-3-----|

 gtr 2
|                                                         |
|-------------|------------------|---------------|---10----------|
|-------------|------------------|6~-----8-------|10^--(^)10\-8-8|
|7------------|-3h5--------3-7--5|5~-----5-------|---------------|
|5------------|--5-------5------3|3~-----5-------|---------------|
|5------------|--5--------------3|3~-----3-------|---------------|
|3---------xxx|x3--xxxx--3-------|---------------|---------------|

|G | |F C |G |
 guitar 1
|                                                               |
|-----------|------------------|--------------------|-3-3-3-3-3-----------|
|-----------|------------------|6-------------------|/8-8-7-5-3-----------|
|-----------|-----------------5|5------5------------|-------------3h4^----|
|5------5---|5-5------5-------3|3------5------------|--------------------5|
|----7--5-7-|5-5--7---5---7-5-3|3------3------------|---------------------|
|3---3--3-3-|3-3--3---3---3----|--------------------|---------------------|

 guitar 2
|                                                               |
|------3----|------------------|--------------------|---------------------|
|8-----3----|------------------|--------------------|---------------------|
|----------/|14-12-14^\p12--12^|-12^\-10--7p5p3-3h4^|---------------------|
|-----------|------------------|--------------------|5--------------------|
|-----------|------------------|--------------------|---3-10^p3-6^p3-6^---|
|-----------|------------------|--------------------|---3-10^p3-6^p3-6^-6^|

|G | |F C |G |
 gtr 1
|                                                                |
|---------|------------------|-------3----------|3----------------------|
|---------|-----------------6|------------------|-----------------------|
|---------|---------------5-5|------------------|-----------------------|
|-----5---|5-5------5-----3-3|------------------|--5--------------------|
|--7--5-7-|5-5--7---5---7-3-3|------------------|--5--7-8-5-7----------5|
|--3--3-3-|3-3--3---3---3----|------------------|--3--3-3-3-3----------3|

 gtr 2
|                                                                |
|---------|------------------|------------------|-----------------------|
|------3--|---3--------------|---------------3--|--------3-----8\6-3h6p3|
|------5^\|-3-5-3------------|---------5p3-5-3--|-----5/7-3-7-7---------|
|---5-----|--------5-----5---|8p5p3-5-----5---5p|3-5/8---5--------------|
|---5-----|------------------|------------------|-----------------------|
|3--3-----|------------------|------------------|-----------------------|

|G | |F C |G |
 gtr 1
|                                                                    |
|---------------|-----------------|-----------------------|-----------------|
|---------------|-----------------|6----------------------|-----------------|
|---------------|----------------5|5-------5--------------|-----------------|
|(5)--5-----5---|5-------5-------3|3-------5--------------|5-5-5-8-5----7-5-|
|(5)--5--7--5-7-|5---7---5---7-5-3|3-------3--------------|5-5-5-5----5---5-|
|(3)--3--3--3-3-|3---3---3---3-3--|----------------------3|-----------------|

 gtr 2
|                                                                    |
|-3-6p3-3-------|-----------------|-----------------------|----------------3|
|-3----6--------|-----------------|-----------------------|----------------3|
|--------5p3-3--|-----------------|-----------------------|----------------7|
|-----------5-5p|3-3-----5-3-----3|3-5--3-5---3-5--5p3-5-3|5p3------------3h|
|---------------|-5-4p3-------3h5-|----3---5p3----3-------|---5-3-------5---|
|---------------|------6----------|---6----------6--------|-----3-6^-3------|

|G | |Fmaj7/G |G7 |
 gtr 1
|                                                            |
|---------------|----------------|----3----------|------------------|
|---------------|----------------|---------------|------------------|
|---------------|----------------|---------------|------------------|
|------------3-5|~-----------3-5-|~--------------|----------3h5-3h5-|
|---------------|----------------|---------------|------------------|
|3-3-3-3-3-3----|3-3-3-3-3-3-----|-3-------------|------------------|

 gtr 2
|                                                            |
|~~~~~~~~-------|----------------|---3-----------|------------------|
|~~~~~~~~-------|----------------|--/8-----------|----------------6/|
|~~~~~~~~-------|----------------|---------------|------------------|
|5~~~~~~~-------|----------------|---------------|------------------|
|---------------|----------------|---------------|------------------|
|---------------|----------------|---------------|------------------|

|Em/G |Am/G |G11 |G |
 gtr 1
|                                                                 |
|-----------------|------------------|-----------------|-----------------|
|-----------------|------------------|-----------------|-----------------|
|-----------------|------------------|-----------------|-----------------|
|----------3h5-3h5|-----------3h5-3h5|----------3h5-3h5|----------3h5-3h5|
|-----------------|------------------|-----------------|-----------------|
|3----------------|3-----------------|3----------------|3----------------|

 gtr 2
|                                                                 |
|-----------------|------------------|-----------------|-----------------|
|8~~~~~-----------|------------------|-----------------|-----------------|
|-----------------|------------------|-----------------|-----------------|
|-----------------|------------------|-----------------|-----------------|
|-----------------|------------------|-----------------|-----------------|
|-----------------|------------------|-----------------|-----------------|

|C |Cmaj7 |
 gtr 1
|                             |
|-----------------|------------------|
|-----------------|------------------|
|-----------------|------------------|
|----------3h5-3h5|------------------|
|-----------------|------------------|
|3----------------|3-----------------|

 gtr 2
|                             |
|-----------------|------------------|
|-----------------|------------------|
|-----------------|------------------|
|-----------------|------------------|
|-----------------|------------------|
|-----------------|------------------|

|Fmaj7/G |G7 |Em/G |Am/G |
Why should I care? Why should I care?
 gtr 1
|                                                                |
|-----------------|-----------------|-----------------|-----------------|
|-----------------|-----------------|-----------------|-----------------|
|-----------------|-----------------|-----------------|-----------------|
|-----------------|-----------------|-----------------|-----------------|
|-----------------|-----------------|-----------------|-----------------|
|3----------------|-----------------|-----------------|-----------------|

|G11 |G |C |
 gtr 1
| 
|-----------------------|------------------|-----------------|
|-----------------------|------------------|-----------------|
|-----------------------|------------------|-----------------|
|-----------------------|------------------|-----------------|
|-----------------------|------------------|-----------------|
|-----------------------|------------------|-----------------|

 Guitar 2
|                                                  |
|-----------------------|------------------|-----------------|
|-----------------------|-------------3-3h5|5----------------|
|19\17-17\16-16\14-14\12|12\10-10\9-9------|-----------------|
|-----------------------|------------------|-----------------|
|-----------------------|------------------|-----------------|
|-----------------------|------------------|-----------------|

 gtr 3
|                                                     |
|19\17-17\15-15\13-13\12|12\10-10\8-8\7-7/8|8----------------|
|-----------------------|------------------|-----------------|
|-----------------------|------------------|-----------------|
|-----------------------|------------------|-----------------|
|-----------------------|------------------|-----------------|
|-----------------------|------------------|-----------------|

=============
litgo@aol.com



G11
variations - click chord images
Transpose chords:
Tuning:
Cool service:
View: Size:
A  A  A
Rating:
Layout:
  • Currently 1.7/5 Stars.
  • 1
  • 2
  • 3
  • 4
  • 5
 
Accuracy:
  • Currently 1.9/5 Stars.
  • 1
  • 2
  • 3
  • 4
  • 5
 
click stars to rate
Chordie recommends:
Check out JamPlay.com for online video guitar lessons
Songbook:
Login to add this song to your songbook
Support the artist
Preview/buy this song
MSN Music
Why this non-profit ad?

 
login to add comments/video/corrections