eToCache5 = ""; ?> insertsongandartist - guitar chords, guitar tabs and lyrics - chordie

The Acid Queen

Who





 INTRO
Dsus2 x2
||----0-----0-----0-||
||------3-----3-----||
||.-------2-----2--.||
||.-0--------------.||
||------------------||
||------------------||


 VERSE
 Dsus2Dsus2/CFmaj7G/FD
If your child ain't all he should be now, this girl can put him right.
      |---0-----0-----0--|----0-----0-----0--|-0--------3-----|-2-----|
      |-----3-----3------|------3-----3------|-1--------3-----|-3-----|
      |-------2-----2----|--------2-----2----|-2--------0-----|-2-----|
      |-0----------------|-------------------|-3--------0-----|-0-----|
      |------------------|-3-----------------|-x--------------|-------|
      |------------------|-------------------|-x--------1-----|-------|

 Dsus2Dsus2/C
I'll show him what he  could be now.
    |---0-----0----0-|----0-----0------|
    |-----3-----3----|------3-----3----|
    |-------2-----2--|--------2-----2--|
    |-0--------------|-----------------|
    |----------------|-3---------------|
    |----------------|-----------------|

 Fmaj7Em7A7sus4A
  Just give me one night.                   (I'm the)
|-0------0-------|-0-----3-3-3-|-0---------------|
|-1------3-------|-3-----3-3-3-|-2---------------|
|-2------0-------|-2-----2-2-2-|-2---------------|
|-3------0-------|-2-----2-2-2-|-2-2-2-2-2-2-2-2-|
|--------2-------|-0-0-0-0-0-0-|-0-0-0-0-0-0-0-0-|
|--------0-------|-------------|-----------------|

 CBORUS
 ADA5ADA5
I'm the gypsy,  the Acid Queen. Pay before we start.
 ADA5EmDA
I'm the gypsy.    I'm guaranteed to tear your soul apart.
 VERSE 2
 Dsus2Dsus2/CFmaj7G/FD
 Give us a room.  Close the door.  Leave us for awhile.
Dsus2 Dsus2/C Fmaj7 Em7 A A7sus4 | A
Your boy won't be a boy no more. Young, but not a child.
 Repeat CBORUS
I'm the gypsy, the Acid Queen. Pay before we start.
I'm the gypsy. I'm guaranteed to tear your soul apart.
 BRIDGE
 F/GG/FF/GG/FG
 Gather your wits and hold on fast. Your mind must learn to roam.
 F/GG/FEmDA
 Just as the Gypsy Queen must do, you're gonna hit the road.
| A | B Bsus4 | B |
 VERSE 3
 EEm7/9/DGA/GE
My work is done. Now look at him. He's never been more alive.
 EEm/DGF#m7B
His head it shakes, his fingers clutch. Watch his body writhe.
 CBORUS 3
B E(no3) B7 B7 E(no3) B
I'm the gypsy, the Acid Queen. Pay before we start.
B E(no3) B7 Em D A
I'm the gypsy. I'm guaranteed to break your little heart.
 SOLO
|----------------|-5-5-5-5-5-----|-5-5-5-5-5------|---------------|
|--------------5-|---------------|--------------3-|---------------|
|-2-2-2-2-2------|---------------|----------------|-2-2-2-2-2-----|
|----------------|---------------|----------------|---------------|
|----------------|---------------|----------------|---------------|
|----------------|---------------|----------------|---------------|
|----------------|-5-5-5-5-5-----|-5-5-5-5-5------|---------------|
|--------------3-|---------------|--------------1-|---------------|
|-2-2-2-2-2------|---------------|------------2---|-2-2-2-2-2-----|
|----------------|---------------|----------------|---------------|
|----------------|---------------|----------------|---------------|
|----------------|---------------|----------------|---------------|

 A7D/AA7A7A7A7
|----------------|---------------|----------------|---------------|
|-2-2-2-2-2----3-|-5-5-5-5-5-----|-5-5-5-5-5----5-|-2-2-2-2-2-----|
|-0-0-0-0-0----0-|-0-0-0-0-0-----|-0-0-0-0-0----0-|-0-0-0-0-0-----|
|-2-2-2-2-2----4-|-5-5-5-5-5-----|-5-5-5-5-5----5-|-2-2-2-2-2-----|
|-0-0-0-0-0----0-|-0-0-0-0-0-----|-0-0-0-0-0----0-|-0-0-0-0-0-----|
|----------------|---------------|----------------|---------------|

 A7D/AA7D/AA7A7
|----------------|---------------|-------------(5)|---------------|
|-2-2-2-2-2----3-|-5-5-5-5-5-----|-3-3-3-3-3---/5-|-2-2-2-2-2-----|
|-0-0-0-0-0----0-|-0-0-0-0-0-----|-0-0-0-0-0----0-|-0-0-0-0-0-----|
|-2-2-2-2-2----4-|-5-5-5-5-5-----|-4-4-4-4-4---/5-|-2-2-2-2-2-----|
|-0-0-0-0-0----0-|-0-0-0-0-0-----|-0-0-0-0-0----0-|-0-0-0-0-0-----|
|----------------|---------------|----------------|---------------|

| A A A A A D/A| A7. . . . | A7. . . . D/A| A A A A A |
| A A A A A D/A| A7. . . . | E(no3) D | A | |
 repeat first VERSE and CBORUS
=============
litgo@aol.com