Guitar Tabs, Chords and Lyrics


All Lovers Are Deranged (Pete’s version)  Who



[intro] 
(keyboard only) (keyboard only) 2
||:G (Gadd2 G Gadd2) |Em (Em7add5 Em Em7add5) :||
||------------------------|<12>------------------------|[first time only]
||------------------------|<12>------------------------|
||<7>---------------------|<12>------------------------|
||<7>---------------------|----------------------------|
||------------------------|----------------------------|
||------------------------|----------------------------|


|G (Gadd2 G Gadd2) |Em (Em7add5 Em Em7add5)|
It takes a fool to phone a fool when they both've said it all
We make the rule and bemoan the rule that neither soul should call

|C D |Em F |C |Em
But love that was is love that is, demands to always be unchanged
But [Dsus4]then all lovers are deranged
[cborus; double-time feel] 
|G |Em |C |
|------------------|---------------------|--------------------|
|-----17-15-12-10-8|8-------17-15-12-10-8|8------17-15-12-10-8|
|-----16-16-14-11-9|9-------16-16-14-11-9|9------16-16-14-11-9|
|------------------|---------------------|--------------------|
|------------------|---------------------|--------------------|
|------------------|---------------------|--------------------|

|Am |G
|----------------------------|---
|8-------8/10-12-8/10-12-10^\|---
|9-------9/11----9/11--------|7--
|----------------------------|---
|----------------------------|---
|----------------------------|---

We walk away with memories and clutch them to our hearts
We're disembodied entities, we loved in fits and starts
A love like wine intoxicates, it drives all those who drink insane
But then all lovers are deranged
[repeat cborus] 
|G |Em |C |C C\ |
[bridge; double-time] 
|A5 A6 A5 A6 |G5 G6 G5 G6 |F5 F6 F5 F6 |C5 C6 C5 C6
You know that you don't really fall in love unless you're seventeen
|A5 A6 A5 A6 |G5 G6 G5 G6 |F5 F6 F5 F6 |C5 C6
Then break your word, let your spirits fly, but you can't know what it means
C5 C6 |B5 B6 B5 B6 |A5 A6 A5 A6 |D5 D6 D5 D6 |F5 F6 F5 F6 |
Unless you're seventeen
                                              [2/4] [4/4] 
|B5 B6 B5 B6 |A5 A6 A5 A6 |D5 D6 D5 D6 |D A |C | | | |
It takes a fire to start a fight and differences remain
We have the right to think we're right, we're addicts feigning shame
For love recalled is love reborn, we're determined to revive the pain
But then all lovers are deranged
All lovers are deranged
It takes a fool to phone a fool when they both've said it all
We made the rule, bemoan that neither soul should call
=============
litgo@aol.com



Important: The song above is NOT stored on the Chordie server. The original song is hosted at www.thewho.net. Chordie works as a search engine and provides on-the-fly formatting. Chordie does not index songs against artists'/composers' will. To remove this song please click here.

Text color:
Chord color:
Chord grids: 
Font size:    
Page size: 

Dsus4
variations - click chord images

Login - add to songbook

Transpose chords

Tuning

Rating click stars to rate

Layout
Accuracy

SHARE PAGE  




You need to log in to post comments