"yes"; ?> insertsongandartist - guitar chords, guitar tabs and lyrics - chordie

Amazing Journey

Who





 INTRO pattern
 CGAEDAD/AAC
|---8--|-7----5-|-4----2-|-0----x-|-x-----8-|

|---8--|-8----5-|-5----3-|-2----3-|-2-----8-|
|---9--|-7----6-|-4----2-|-2----2-|-2-----9-|
|---10-|-9----7-|-6----0-|-2----4-|-2----10-|
|------|--------|--------|-0----0-|-0-------|
|------|--------|--------|--------|---------|
 gtr2
|                                     |
|---8--|-7----5-|-4----2-|------2-|-------8-|

|------|--------|--------|-2------|-2-------|
|---9--|-7----6-|-4----2-|------2-|-------9-|
|------|--------|--------|-2------|-2-------|
|------|--------|--------|--------|---------|
|------|--------|--------|--------|---------|
 GAEDAD/AAD/AAD/AAC
                                                                                     
|-7----5-|-4----2-|-0------|-0------|-0------|-------8-|

|-8----5-|-5----3-|-2----3-|-2----3-|-2----3-|-2-----8-|
|-7----6-|-4----2-|-2----2-|-2----2-|-2----2-|-2-----9-|
|-9----7-|-6----0-|-2----4-|-2----4-|-2----4-|-2----10-|
|--------|--------|-0----0-|-0----0-|-0----0-|-0-------|
|--------|--------|--------|--------|--------|---------|
| A7 |
|-7----5-|-4----2-|--------|--------|--------|-------8-|

|--------|--------|-2----2-|-2----2-|-5----2-|-2-------|
|-7----6-|-4----2-|--------|--------|--------|-------9-|
|--------|--------|-2----3-|-2----3-|-5----3-|-2-------|
|--------|--------|--------|--------|--------|---------|
|--------|--------|--------|--------|--------|---------|
 VERSE 1; witb above pattern (note: stage vers. begin open crds bere
 
 CGAEDAD/AA
     Deaf, dumb and blind boy, He's in a quiet vibration land.
 CGAEDAD/AA
   Strange as it seems, his musical dreams ain't quite so bad. 
| G | E | A D/A | A D/A |
| G | E | A |
 VERSE pattern; witb open cbords
 
C | G A | E D | A | C | G A | E D | A D/A | A7 C |
 GA5EDAD/AAC
 Ten years old with thoughts as bold as thoughts can be.  
 GA5EDAD/AA
 Loving life and becoming wise in simplicity. 
 CBORUS
 
 G7/FCmaj7/E
 Sickness will surely take the mind where minds can't usually go
 Cm7/EbDDsus4/7DDsus4D
Come on the amazing journey and learn all you should know.  
 BRIDGE
 
 GDsus4DDsus4D
A vague haze of delirium creeps upon me 
 GDsus4DDsus4D
All at once a tall stranger I suddenly see 
 GDsus4DDsus4D
He's dressed in a silver-sparkled glittering gown.
 GDDm
And his golden beard flows nearly down to the (ground)
Bb5 | F5 C5 | G5 D | A D/A | A
ground..
C | G A5 | E D | A D/A | A7 D/A | A D/A | A7 C |
 GAEDAD/AAC
 Nothing to saynothing to hearnothing to see.  
 GAEDAD/AA
 Each sensatiomakes a note in my symphony. 
| G | E5 | A D/A | A D/A |
| G | E5 | A | |
 repeat CBORUS
 
Sickness will surely take the mind where minds can't usually go
Come on the amazing journey and learn all you should know
[rep  eat BRIDGE]          
 Dsus4DDsus4D
His [  G]eyes are the eyes that transmit all theknow
 GDsus4DDsus4D
 Sparkle warm crystalline glances to show
 GDsus4DDsus4D
He is your leader, he is your guide
 GDDm
On the amazing journey together you'll (ride).
Bb5 | F5 C5 | G5 D | A D/A | A
ride..
C | G A 5 | E D | A D/A | A7 A5 A5 | (E5)*
 *beginning of Sparks
                                          
=============
litgo@aol.com