Guitar Tabs, Chords and Lyrics


Baba O’Riley (Violin for guitar)  Who



[4/4] Gtr I
W +H. E E Q Q H +H. E E
|----------|----------1-3-|-5--8--8----|-(8)------8-10-|
|-1--------|-(1)----------|------------|---------------|
|----------|--------------|------------|---------------|
|----------|--------------|------------|---------------|
|----------|--------------|------------|---------------|
|----------|--------------|------------|---------------|

Q Q H H Q Q E E H. +H H
|--------------|-------------|-------------|--------------|
|-11--10--8----|-------------|-------------|--------------|
|--------------|-10----8--7--|-8-7---------|---------5----|
|--------------|-------------|-----10------|-(10)---------|
|--------------|-------------|-------------|--------------|
|--------------|-------------|-------------|--------------|

H Q. E Q E Q E E E Q. E E E E E E E E E Q E E
|--------------|---------------|-----------------|-----------------|
|-6----6-----8-|---------------|-6-----8---------|-----------------|
|--------------|-8-7-8--7-8-7--|---------8-7-8-7-|-5-7-5-----------|
|--------------|---------------|-----------------|-------8-7--7-8--|
|--------------|---------------|-----------------|-----------------|
|--------------|---------------|-----------------|-----------------|

Q E E Q E E Q E Q. E E H E S S Q H Q
|---------------|---------------|--------------|------------|
|-------------6-|---------------|--------------|------------|
|-5--5-7-8--8---|-8--7-8----8-7-|-5------3h5p3-|-2--5----5--|
|---------------|---------------|--------------|------------|
|---------------|---------------|--------------|------------|
|---------------|---------------|--------------|------------|

Q E E E E E E Q. E Q E E
|------5-5-6-6-8-|-8----8-8--8-10-|
|-6--6-----------|----------------|
|----------------|----------------|
|----------------|----------------|
|----------------|----------------|
|----------------|----------------|

Q E E Q E E +E E E E E E E E
|-11--10-13-11--10-11-|-(11)-10-11-10-10----------|
|---------------------|------------------13-13-11-|
|---------------------|---------------------------|
|---------------------|---------------------------|
|---------------------|---------------------------|
|---------------------|---------------------------|

Q E Q E E E Q E E E E E E
|-11--10-11--10-11-10-|-11--10-11-10----------|
|---------------------|--------------13-13-11-|
|---------------------|-----------------------|
|---------------------|-----------------------|
|---------------------|-----------------------|
|---------------------|-----------------------|

S S S S E E E E E E S S S S E E E E E E
|-10h11p10h11-10----------------|-10h11p10h11-10----------------|
|----------------13-13-11-11-10-|----------------13-11-11-11-10-|
|-------------------------------|-------------------------------|
|-------------------------------|-------------------------------|
|-------------------------------|-------------------------------|
|-------------------------------|-------------------------------|

S S S S E E E E E E
|-10h11p10h11-10----------------|
|----------------13-13-11-11-10-|
|-------------------------------|
|-------------------------------|
|-------------------------------|
|-------------------------------|

S E. E S S E E E E Q E E E E S S E
|-10-11--11-10h11-------------|-13--11-10-11-10-8h10-8-|
|-----------------13-11-11-10-|------------------------|
|-----------------------------|------------------------|
|-----------------------------|------------------------|
|-----------------------------|------------------------|
|-----------------------------|------------------------|
  |-3--| |-3--| |-3--| |-3--|

E E E E E E E E E E E E Q E Q E E E Q E Q E E E
|-8-6--5-6-5----5-------------|---------------|---------------|
|-------------8---8--6-8-6----|-6--4-4--3-4-3-|-4--3-4--3-4-3-|
|---------------------------8-|---------------|---------------|
|-----------------------------|---------------|---------------|
|-----------------------------|---------------|---------------|
|-----------------------------|---------------|---------------|

Q Q E E Q Q Q E E Q Q Q E E Q Q Q E E Q
|-------5-6-8--|-------5-6-8--|-------------------|-------------------|
|----6---------|----6---------|---------10-11-13--|---------10-11-13--|
|-5------------|-5------------|-----10------------|-----10------------|
|--------------|--------------|-10----------------|-10----------------|
|--------------|--------------|-------------------|-------------------|
|--------------|--------------|-------------------|-------------------|

E E E Q. E E Q E E Q Q
|---11-11-11----11-11-|-11--11-11-11--11--|
|---------------------|-------------------|
|---------------------|-----------12--12--|
|---------------------|-------------------|
|---------------------|-------------------|
|---------------------|-------------------|

Q E E Q E E +E E E E E E E E
|-11--11-10-11--10-11-|-(11)-10-11-10-10-----------|
|---------------------|------------------13-13-10--|
|-12------------------|----------------------------|
|---------------------|----------------------------|
|---------------------|----------------------------|
|---------------------|----------------------------|

Q. Q. Q +E E.. E E E E E E
|-13----13----13--|-(13)-11---11-10-11-10-10----|
|-10----10----10--|-(10)---------------------10-|
|-----------------|-----------------------------|
|-----------------|-----------------------------|
|-----------------|-----------------------------|
|-----------------|-----------------------------|

Q Q. Q E +Q E Q E E E
|-13--13----13--11-|-(11)--10-11--10-8-----|
|-10--10----10-----|-------------------10--|
|------------------|-----------------------|
|------------------|-----------------------|
|------------------|-----------------------|
|------------------|-----------------------|

H=H
S S S S S S S S S S S S S S S S S S S S S S S S S S S S S S S S
|-8-8-8-8-8-8-8-8-8-8-8-8-8-8-8-8-|-8-8-8-8-8-8-8-8-8-8-8-8-8-8-8-8-|
|---------------------------------|---------------------------------|
|---------------------------------|---------------------------------|
|---------------------------------|---------------------------------|
|---------------------------------|---------------------------------|
|---------------------------------|---------------------------------|

S S S S S S S S S S S S S S S S S S S S S S S S S S S S S S S S
|-8-8-8-8-8-8-8-8-8-8-8-8-8-8-8-8-|-8-8-8-8-8-8-8-8-8-8-8-8-8-8-8-8-|
|---------------------------------|---------------------------------|
|---------------------------------|---------------------------------|
|---------------------------------|---------------------------------|
|---------------------------------|---------------------------------|
|---------------------------------|---------------------------------|

Q=240
S S S S S S S S S S S S S S S S E E E E E E E E E E E E E E E E
|-8-8-8-8-8-8-8-8-8-8-8-8-8-8-8-8-|-8-8-8-8-8-8-8-8-|-8-8-8-8-8-8-8-8-|
|---------------------------------|-----------------|-----------------|
|---------------------------------|-----------------|-----------------|
|---------------------------------|-----------------|-----------------|
|---------------------------------|-----------------|-----------------|
|---------------------------------|-----------------|-----------------|

  [E]  [E]  [E]  [E]  [E]  [E]  [E]  [E]    [E]  [E]  [E]  [E]  [E]  [E]  [E]  [E]                                                   
|-8-8-8-8-8-8-8-8-|-8-8-8-8-8-8-8-8-*|
|-----------------|-----------------*|
|-----------------|-----------------*|
|-----------------|-----------------*|
|-----------------|-----------------*|
|-----------------|-----------------*|

***************************************************************************************
* Generated using Power Tab Editor by Brad Larsen - http://powertab.guitarnetwork.org *
***************************************************************************************



Important: The song above is NOT stored on the Chordie server. The original song is hosted at www.thewho.net. Chordie works as a search engine and provides on-the-fly formatting. Chordie does not index songs against artists'/composers' will. To remove this song please click here.

Text color:
Chord color:
Chord grids: 
Font size:    
Page size: 

E
variations - click chord images

Login - add to songbook

Transpose chords

Tuning

Rating click stars to rate

Layout
Accuracy

SHARE PAGE  




You need to log in to post comments