Guitar Tabs, Chords and Lyrics


Call Me Lightning (demo)   Who


|-----------------------------------------------------------------------|
|---8---6--------------------------------------------------------------|
|---8---7------------------------6------6--6b--6b--6rb---6--------|
|---8---8---------------------8-----8----------------------------8----|
|-----------------------------------------------------------------------|
|-----------------------------------------------------------------------|
|--------------9-----6------------------------------------------------------|
|---8---6----------------9----6--------------------------------------------|
|---8---7---------------------------6--6b--6b--6rb---6-----------------|
|---8---8------------------------------------------------------8-----------|
|--------------------------------------------------------------------------|
|--------------------------------------------------------------------------|
|---------------------------------------------------------------------------|
|---8---6-------------------------------------------------------------------|
|---8---7-------------------------------------------------------------------|
|---8---8-----------------6-------------6-------------6-------------6-----|
|------------------6^8----------6^8----------6^8----------6^8----------|
|---------------------------------------------------------------------------|


Important: The song above is NOT stored on the Chordie server. The original song is hosted at www.thewho.net. Chordie works as a search engine and provides on-the-fly formatting. Chordie does not index songs against artists'/composers' will. To remove this song please click here.

This song is displayed as text-only. Transposing and tuning is only available for chordpro-songs.

Login - add to songbook

Rating click stars to rate

Layout
Accuracy

SHARE PAGE  




You need to log in to post comments