Guitar Tabs, Chords and Lyrics


Daddy Rolling Stone  Who



-----------------------


-----------------------


-----------------------


|----------------------|     (Repeat)


|----------------------|


|----------------------|


|-----5----3-----3-----|


|-------5-----5-----5--|


|3---------------------|


|------------------------|   (Repeat)


|------------------------|


|------------------------|


|-----5---------3------5-|


|--------5--3H5----3H5---|


|3-----------------------|

Girl you think you've had lovin'([G]Yeah)
Girl you think you've had fun   ([G]Yeah)
Girl you ain't a'seen nothin'   ([G]Yeah)
Till I come along.
Chorus:
(with Riff 1 and Riff 2)
I'm a daddy (Daddy Roller)
I'm a daddy (Daddy Roller)
I'm a daddy (Daddy Roller) (Daddy Roller)
Yeah I'm a [D]da[D]ddy (daddy) [D]da[D]ddy (daddy)[C]
I'm Daddy Rolling Stone
Verse 2:
I've got a friend named Cody [G](Yeah)
He's got a girl named Chris  [G](Yeah)       G
I'm going to steal that girl, though he's twice my size
'Cause I know how to do it like this
(To Chorus)
(Solo 1)
Call me Daddy Rolling Stone
[Bm]I s[Bm]aid[Bm]...[Bm] [Bm] [Bm] [Bm]
(To Verse 2)
(To Chorus)
Outtro:
(With Riff 1 and Riff 2)
I'm Daddy Rolling Stone
Just call me Daddy Rolling Stone
Long hair, long nose
Daddy Rolling Stone



Important: The song above is NOT stored on the Chordie server. The original song is hosted at www.thewho.net. Chordie works as a search engine and provides on-the-fly formatting. Chordie does not index songs against artists'/composers' will. To remove this song please click here.

Text color:
Chord color:
Chord grids: 
Font size:    
Page size: 

Bm C D G
variations - click chord images

Login - add to songbook

Transpose chords

Tuning

Rating click stars to rate

Layout
Accuracy

SHARE PAGE  




You need to log in to post comments