eToCache5 = ""; ?> The Dirty Jobs by Who - guitar chords, guitar tabs and lyrics - chordie

The Dirty Jobs

Who



 intro

||:C G/C |Fadd9/C G/C :||
 born arranged for guitar
||-8-------------|-------------||
||---------------|8------------||
||.-----5-7-9-10-|------------.||
||.--------------|------------.||
||---------------|-------------||
||---------------|-------------||


 verse
|C C G/C G/C |Fadd9/C G/C G/C|
I am a man who looks after the pigs
|C C G/C G/C |Fadd9/C G/C G/C |
Usually I get along okay
|C C G/C G/C |Fadd9/C G/C G/C |
I am a man who reveals all he digs
|C C G/C G/C |Fadd9/C Fadd9/C G/C G/C
Should be more careful, what I say

 cborus
|C F Bb/F Bb/F F |C F Bb/F Bb/F F |
I'm getting put down I'm getting pushed 'round

|Dm Dm C C |Bb5 Bbmaj7 Bb6 Bbmaj7 Bb5 |
I'm being beaten every day
                          |6-6-5-5----3--3-5-3--6-6--|
                          |6-6-6-6----6--6-6-6--6-6--|
                          |3-3-3-3----3--3-3-3--3-3--|
                          |3-3-3-3----3--3-3-3--3-3--|
                          |--------------------------|
                          |--------------------------|


|C F Bb/F Bb/F F |C F Bb/F Bb/F F |
My life's fading but things are changing

|Dm Dm C C ||:Bb5 Bbmaj7 Bb6 Bbmaj7 Bb5 :||2
I'm not gonna sit and weep again
                             ||-6-6-5-5----3--3-5-3--6-6---||
                             ||-6-6-6-6----6--6-6-6--6-6---||
                             ||.3-3-3-3----3--3-3-3--3-3--.||
                             ||.3-3-3-3----3--3-3-3--3-3--.||
                             ||----------------------------||
                             ||----------------------------||


 repeat verse
I am a man who drives a local bus
I take miners to work but the pit's all closed today
It's easy to see that you are one of us
Ain't it funny how we all seem to look the same

 repeat cborus
I'm getting put down
I'm getting pushed 'round
I'm being beaten every day
My life's fading but things are changing
I'm not gonna sit and weep again

 bridge
|F F C C|Bb Bb F F |
My Karma tells me you've been screwed again
|------------------------|----------------------------|
|10/11-11-11/10-/13------|15/16-16-16/15-18-----------|
|10/12-12-12/10-/12------|15/17-17-17/15-17-----------|
|------------------------|----------------------------|
|------------------------|----------------------------|
|------------------------|----------------------------|


|Gm Gm F F |Eb Eb Bb Bb |
If you let them do it to ya you've got yourself to blame
|-------------------------------------|14--13--11---13-10--6----|
|15/18-18--18/15----13----------------|15--13--11---13-11--6----|
|15/17-17--17/15----14----------------|-------------------------|
|-------------------------------------|-------------------------|
|-------------------------------------|-------------------------|
|-------------------------------------|-------------------------|


|Bb Bb Bb Bb |
It's you who feels the
|10-6-10-6-10-6-----10------6--------|
|11-6-11-6-11-6-----11------6--------|
|------------------------------------|
|------------------------------------|
|------------------------------------|
|------------------------------------|


 repeat intro
|F     F              F       F        |C     
pain It's you who takes the shame
|8--5--8--5-8--13-----8-------5--------|
|10-6--10-6-10-13-----10------6--------|
|--------------------------------------|
|--------------------------------------|
|--------------------------------------|
|--------------------------------------|


 repeat verse
I am a young man, I ain't done very much
You men should remember how you used to fight
Just like a child, I've been seeing only dreams
I'm all mixed up but I know what's right

 repeat cborus
I'm being put down (I'm being put down)
I'm getting pushed 'round (I'm getting pushed 'round)
I'm being beaten every day
My life's fading but things are changing
I'm not gonna sit and weep again
I'm not gonna weep again

 repeat intro and fade

=============
litgo@aol.com




variations - click chord images
Transpose chords:
Tuning:
Cool service:
View: Size:
A  A  A
Rating:
Layout:
  • Currently 0/5 Stars.
  • 1
  • 2
  • 3
  • 4
  • 5
 
Accuracy:
  • Currently 2.7/5 Stars.
  • 1
  • 2
  • 3
  • 4
  • 5
 
click stars to rate
Chordie recommends:
Get acoustic guitar lessons and electric guitar lessons at JamPlay.com
Songbook:
Login to add this song to your songbook
Support the artist
Preview/buy this song
MSN Music
Why this non-profit ad?

 
login to add comments/video/corrections