Guitar Tabs, Chords and Lyrics


Face Dances Part Two  Who



[Bm]Bm7     [799777]7977 10 7
D/A xx77 10 10
E7sus4 x799 10 10
A xx79 10 9
5/4 time
(intro; synth arr for gtr; repeat throughout verse)
||:D |Bm :||x2
||-14--10-12--14--10-12-|10--7-9---10--7-9---||
||-15--12-14--15--12-14-|12--8-10--12--8-10--||
||.---------------------|-------------------.||
||.---------------------|-------------------.||
||----------------------|--------------------||
||----------------------|--------------------||

|D |Bm
I watch you sit and twitching with a match between your teeth
|D |Bm
You seem to have a knack for moving it, It's in time to the beat
||:D |Bm7 :||x2
Face dances tonight, Fate chances moonlight
||---------------------|----------------------||
||------10------10--10-|-----10-------10--10--||
||.7----------7---11---|7------------7--11---.||
||.--------------------|---------------------.||
||---------------------|----------------------||
||---------------------|----------------------||

I can't be distracted
By the stuttering of the kids
I just sit enraptured
By your fluttering eyelids
||:D |Bm |D |Bm | :||x2
I can only stare, you make me feel like I don't care
||-----------|------------------|-----------------|-------|-----||
||----7----7-|-------7--------7-|-----7------7----|-------|-----||
||.7-----9---|-----------9------|7---------9------|7------|----.||
||.----------|9-----------------|-----------------|--11-9-|----.||
||-----------|------------------|-----------------|-------|-----||
||-----------|------------------|-----------------|-------|-----||

|D |Bm |D |Bm | |
|----------|-------------------|-----------------|-------|----|
|---7----7-|-------7--------7--|-----7------7----|-------|----|
|7-----9---|-----------9-------|7---------9------|7------|----|
|----------|9------------------|-----------------|--11-9-|----|
|----------|-------------------|-----------------|-------|----|
|----------|-------------------|-----------------|-------|----|

I can only stare, you make me feel like I don't care
Your eyes explain a story
That never had a start
Your brow reveals the glory
That's hidden in your heart
Face dances tonight, Fate chances moonlight
Face dances tonight, Fate chances moonlight
Your skin is fine china
White as winter snows
Your lips are always shining
Turning up your nose
Face dances tonight, Fate chances moonlight
Face dances tonight, Fate chances moonlight
(bridge; 4/4 time; gtr tacit; synth & bass arr for gtr)
|D/A |E7sus4 |D/A |D |D/A | |A | |A |* |
(*pick slide)
(return to 5/4 time)
Face dances tonight, Fate chances moonlight
Face dances tonight, Fate chances moonlight
I can only stare, you make me feel like I don't care
=============
litgo@aol.com



Important: The song above is NOT stored on the Chordie server. The original song is hosted at www.thewho.net. Chordie works as a search engine and provides on-the-fly formatting. Chordie does not index songs against artists'/composers' will. To remove this song please click here.

Text color:
Chord color:
Chord grids: 
Font size:    
Page size: 

Bm
variations - click chord images

Login - add to songbook

Transpose chords

Tuning

Rating click stars to rate

Layout
Accuracy

SHARE PAGE  




You need to log in to post comments