Go To The Mirror!

Who



 note: tonality is Amaj7 x02224; but guitar plays A
A*      x022(2)x   

 INTRO; main pattern
                 x4
||: E5 B5 A5 ||
||-----------------------------------||
||-----------------------------------||
||.------------(5)---(4)(4)(4)(2)(2).||
||.(2)(2)(2)(2)(2)----4--4--4--2--2-.||
||--2--2--2--2--2-----2--2--2--0--0--||
||--0--0--0--0--0--------------------||


 VERSE
|E5 B5 |E5 E B5 A5
He seems to be completely unreceptive
|E5 B5 |E5 E B5 A5
The tests I gave him show no sense at all
|Ab7 |C#m B B
His eyes react to light, the dials detect it
|A* |B7sus4 |B5 |
He hears but cannot answer to your call

 BRIDGE
 piano
| Ebmaj7 | Fsus4 F | Fsus4 F | G |
See me Feel me Touch me Heal me
 guitar
|----------|------------|------------|---------|
|----------|------------|------------|---------|
|----------|------------|------------|---------|
|--------8-|-7--------5-|-3----------|---------|
|-6--------|------------|----------3-|---------|
|----------|------------|------------|-3-------|


| Ebmaj7 | Fsus4 F | Fsus4 F |
See me Feel me Touch me
|----------|------------|------------|
|----------|------------|------------|
|----------|------------|------------|
|--------8-|-7--------5-|-3----------|
|-6--------|------------|----------3-|
|----------|------------|------------|


|Emsus4 |E | B7sus4 | B |
heal me (There)
|----------------|--------0------|-------5-5-5-5-|-----------------|
|----------------|--------0------|-------5-5-5-5-|-----------------|
|----------------|--------1------|-4-4---4-4-4-4-|-4-4-4-4-4-4-4-4-|
|2---------------|--------2------|-4-4---4-4-4-4-|-4-4-4-4-4-4-4-4-|
|2---------------|--------2-----0|-2-2-x-2-2-2-2-|-2-2-2-2-2-2-2-2-|
|0-0-0-0-0-0-0-0-|0-0-0-0-0-0-0--|---------------|-----------------|


 VERSE
|E5 B5 |E5 B5 A5 |
There is no chance, no untried operation
E5 B5 |E5 B5 A5
All hope lies with him and none with me
|Ab7 |C#m B B
Imagine, though, the shock from isolation
|A |B7sus4 |B5 |
When he suddenly can hear and speak and see

 Repeat BRIDGE
See me, feel me, touch me, heal me
See me, feel me, touch me,

|Em Emadd9 |E | B7sus4 | B |
heal me
|-----2------|0--------------|-5-----5---5------|-------------------0-|
|-----0------|0--------------|-5-----5---5------|-------------------0-|
|-----0------|4--------------|-2-----2---2------|-4----4----4----4----|
|-----2------|2--------------|-2-----2---2------|-4----4----4----4----|
|-----2------|2-------------0|-2-2-2-2-2-2-2-xx-|-2----2-xx-2-xx-2----|
|0------0-0-0|0-0-0-0-0-0-0--|------------------|---------------------|


 VERSE
His eyes can see, his ears can hear, his lips speak
All the time the needles flick and rock
No machine can give the kind of stimulation
Needed to remove his inner block

 CBORUS
                                       x2
||:B5 | :||
|| Go to the mirror, boy! ||
||------------------------|-------------------||
||------------------------|-------------------||
||.4--4--4---2------4-4---|-4---4-4-4-4-4-4--.||
||.4--4--4---2------4-4---|-4---4-4-4-4-4-4--.||
||-2--0--2---0------2-2---|-2---0-1-2---0-1---||
||------------------------|---2-------2-------||

 bass
||                  |                   ||
||------------------------|-------------------||
||.-----------------------|---------2-0------.||
||.2-------------------(2)|-----2-5-----2-0--.||
||------------------------|-2-5---------------||


 VERSE
I often wonder what he is feeling.
Has he ever heard a word I've said?
Look at him in the mirror dreaming.
What is happening in his head?

 REFRAIN
|A B |C
Listening to you, I get the music
|A B |E
Gazing at you, I get the heat
|A B |C
Following you, I climb the mountain
|G D |B |B7sus4
I get excitement at your feet.
|A B |C
Right behind you, I see the millions
|A B |E
On you, I see the glory
|A B |C
From you, I get opinions
|G D |Bsus4 |B
From you, I get the story

 Repeat main pattern
||: E5 E5 E5 B5 B5 A5 :||x4

|Ab7 |C#m B
What is happening in his head?
|A |Bsus4 |B7sus4 B5 |E
Oooh, I wish I knew, I wish I knew.
x3
||:E5 B5 A5:|| E5
||----------------||----
||----------------||----
||.--------------.||----
||.--------4-4-2-.||----
||--2-2---2-2--0--||----
||-0-0-0----------||-0--

 palm mute

=============
litgo@aol.com




variations - click chord images
Transpose chords:
Tuning:
Cool service:
View: Size:
A  A  A
Rating:
Layout:
  • Currently 0/5 Stars.
  • 1
  • 2
  • 3
  • 4
  • 5
 
Accuracy:
  • Currently 2.7/5 Stars.
  • 1
  • 2
  • 3
  • 4
  • 5
 
click stars to rate
Chordie recommends:
Learn how to play guitar at JamPlay.com
Songbook:
Login to add this song to your songbook
Support the artist
Preview/buy this song
MSN Music
Why this non-profit ad?

 
login to add comments/video/corrections