Hall Of The Mountain King

Who



||----------------|--------------|--------------|-------------||

||----------------|--------------|--------------|-------------||

||.---------------|--------------|--------------|2-0-------0-.||

||.------0-2---2--|1---1--0---0--|------0-2---2-|----2---2---.||

||-0-2-3-----3----|--2------1----|0-2-3-----3---|------3------||

||----------------|--------------|--------------|-------------||

 2
||---------------|-------------|--------------|--------------||
||---------------|-------------|--------------|--------------||
||.----1-2-4-1-4-|4h5-5~-5~-3--|----1-2-4-1-4-|4h5-5~-5~-3--.||
||.2-4-----------|-------------|2-4-----------|-------------.||
||---------------|-------------|--------------|--------------||
||---------------|-------------|--------------|--------------||

 2/4)(4/4DG
|---------------|--------------|--------------|----|----|----|
|---------------|--------------|--------------|----|----|----|
|---------------|--------------|--------------|4-4-|2---|----|
|------0-2---2--|1---1--0---0--|------0-2---2-|2-2-|2---|----|
|0-2-3-----3----|--2------1----|0-2-3-----3---|2-2-|0---|----|
|---------------|--------------|--------------|0-0-|----|----|

 2
||:G    Bb  |A  Ab  |G    Bb  |A  Ab  :||
(repeat)
=============
litgo@aol.com































D G
variations - click chord images
Transpose chords:
Tuning:
Cool service:
View: Size:
A  A  A
Rating:
Layout:
  • Currently 2.8/5 Stars.
  • 1
  • 2
  • 3
  • 4
  • 5
 
Accuracy:
  • Currently 2/5 Stars.
  • 1
  • 2
  • 3
  • 4
  • 5
 
click stars to rate
Chordie recommends:
Get acoustic guitar lessons and electric guitar lessons at JamPlay.com
Songbook:
Login to add this song to your songbook
Support the artist
Preview/buy this song
MSN Music
Why this non-profit ad?

 
login to add comments/video/corrections