""; ?> Heaven And Hell by Who - guitar chords, guitar tabs and lyrics - chordie

Heaven And Hell

Who



 Fadd9133213
 Db     (4)4666x
D x00232
Dsus4x x(0)0233
Bb (1)1333x
B (2)244xx
x2
||:G |Eb |C |G :||
|G5/G5/F5/F5/|/G5/G5\F5/F5/|
|G5 F5 |G5 F5 |G |G
On top of the sky is a place where you go if you've done nothing wrong
|Fadd9 (Eb)|D Dsus4 D
If you've done nothing wrong
|G |Fadd9
And down in the ground is a place where you go
|Bb Bb B|C
if you've been a bad boy
|Bb Bb B|C
If you've been a bad boy
(chorus)
|G5 |Fadd9 |Db |F5
Why can't we have eternal life and never die?
|Db |F5
Never die?
|F5 F5->G5 G5 G5->F5 |
In the place up above you grow feather wings and you flap round and round
With a harp singing hyms
And down in the ground you grow horns and a tail and you carry a fork
And moan and wail
(repeat chorus)
|F5 F5->G5 G5 G5->F5 |
|G |Eb |C |G
|-------------|-----------|-----------------|----------3-----|
|-------------|-----------|-----------------|-----3--6---3-6h|
|-------------|-----------|3--3---3---3---0-|--3-------------|
|--------3-5-3|5-----5-5--|-5---5---5---5---|5---------------|
|--1h3/5------|-----------|-----------------|----------------|
|3------------|-----------|-----------------|----------------|

|G |Eb |C |
|---------------|-------------|10p6-10p6-10p6--6----|
|8---6h8-6h8--6h|8---6h8--8-8-|----8----8----8--8-6-|
|---------------|-------------|---------------------|
|---------------|-------------|---------------------|
|---------------|-------------|---------------------|
|---------------|-------------|---------------------|

|G G | Eb |C | |
|-------------|3------------|---------|----------------|
|8------3-3-6-|--6p3p0-6--6^|6^-----6h|8-6h8-6h8-6h8-6h|
|--3-0--------|-------------|---------|----------------|
|-------------|-------------|---------|----------------|
|-------------|-------------|---------|----------------|
|-------------|-------------|---------|----------------|

|G |G |Eb |
|----------------|----------|-------------|
|8---------------|----------|-------------|
|--7p5p0------3^-|------3-5-|5^-----(5^)\3|
|--------5p3h5---|5---------|-------------|
|----------------|----------|-------------|
|----------------|----------|-------------|

|C |G |G |
|------------------|--------------------|-----------------|
|------------------|--------------------|-----------------|
|------------------|--------------------|-----------------|
|5-5-5-5-5-5-5-5---|--------------------|-----------------|
|------------------|3-1-----------------|-----------------|
|------------------|----3-1-3-----------|3-3-3-3-3-3-3-3--|

|Eb |C |G |
|----------------|--------------------|------------------|
|----------------|--------------------|------------------|
|----------------|--------------------|------------------|
|----------------|3------------------3|5p3h5-5p3h5-5-5-5-|
|-----------5p3h5|--5p3h5-5p3h5-5p3h5-|------------------|
|3-3-3-3-3-3-----|--------------------|------------------|

|G |Eb |C |
|-----------------|-----------------|----------------3-|
|-----------------|-----------------|------------------|
|3p0-3p0-3p0-3p0--|3p0-3p0-3p0-3p0--|3p0-3p0-3--5^-----|
|---5---5---5---5-|---5---5---5---5-|---5---5--5-------|
|-----------------|-----------------|------------------|
|-----------------|-----------------|------------------|

|G |G |Eb |
|3-----------------|-----------------|------------|
|--6/6/6-3/3/3-----|------3------3---|3---3--3----|
|-------------0/3^0|3^-0--3---3--3---|3---3--3----|
|------------------|--------5---5--5-|--5---5--5--|
|------------------|-----------------|------------|
|------------------|-----------------|------------|

|C |G |G |
|------3-----|--------------------|-----------------------|
|--------6-3-|6^----6-8-8/8/8-6-8-|6----12---12---12---12-|
|-3-5^-------|--------------------|-----------------------|
|5-----------|--------------------|--0h12-0h12-0h12-0h12--|
|------------|--------------------|-----------------------|
|------------|--------------------|-----------------------|

|Eb |C |G |
|-----------------|-------------------|------------|
|---8---8---8---8-|---5---5---5---5-5p|3---------3-|
|-----------------|-------------------|----------3-|
|0h8-0h8-0h8-0h8--|0h5-0h5-0h5-0h5--5-|------------|
|-----------------|-------------------|------------|
|-----------------|-------------------|---3-3-3----|

|G |Eb |C |
|--------------|--------------------|--------------------|
|--------------|--------------------|--------------------|
|------3-------|8-------------------|5-----------------5-|
|5---5---5-5---|8----6-6-6----------|5-----------------5-|
|------------6-|6--6-6-6-6----------|3-----------------3-|
|--------------|6-------------------|--------------------|

x3
|G ||:G Fadd9 :||G Fadd9|
|------------------||-3----------3--3--3--||3----------3--|
|------------------||-3----------1--1--1--||3----------1--|
|------------------||.4----------2--2--2-.||4----------2--|
|5-----------------||.5----------3--3--3-.||5----------3--|
|5-----------------||---------------------||--------------|
|3-----------------||-3T---------1T-1T-1T-||3T---------1T-|

(repeat first verse and chorus)
(outro)
|Db |Bb |F |F
=============
litgo@aol.com



Fadd9
variations - click chord images
Transpose chords:
Tuning:
Cool service:
View: Size:
A  A  A
Rating:
Layout:
  • Currently 2.4/5 Stars.
  • 1
  • 2
  • 3
  • 4
  • 5
 
Accuracy:
  • Currently 2.7/5 Stars.
  • 1
  • 2
  • 3
  • 4
  • 5
 
click stars to rate
Chordie recommends:
Learn to play guitar with video-based, online guitar lessons at JamPlay.com
Songbook:
Login to add this song to your songbook
Support the artist
Preview/buy this song
MSN Music
Why this non-profit ad?

 
login to add comments/video/corrections