Chordie logo


Here For More   Who


|-----3-3-3------|2---5-5-5--3-|2-----------|----------------|------------|
|-----3-3-3---3--|3---5-5-5--3-|3-----------|----------------|------------|
|14\--0-0-0---2--|2---2-2-2--0-|2-----------|-2-2------------|-----------2|
|14\--0-0-0---0--|0---2-2-2--0-|0-----------|0----0----------|------------|
|12\-------------|----0-0-0----|------------|------3-2-0-----|------------|
|-------------2--|-------------|------------|-----------3^-0-|------------|




|[gtr 2 (left cbannel]        |            |                |            |


|F#   E E    E/B |             |            |                |            |


                                                                                     


|6------------7--|----6-6-6----|------------|----------------|------------|
|7----5-5-----5--|4---7-7-7--3-|-4--4--4--4-|-4---4---4---4--|-4--4--4--4-|
|6----4-4-----4--|4---6-6-6--4-|-4--4--7^-4-|-4---4---7^--4--|-4--4--7^-4-|
|4----6-6-----6--|4---4-4-4--6-|-4--4--4--4-|-4---4---4---4--|-4--4--4--4-|
|-----7-7--------|-----------7-|------------|----------------|------------|
|-------------7--|7------------|7--7--7--7--|7---7---7---7---|7--7--7--7--|







[verse] 


       |B            E/B        |B


You can pack up your bags and go looking


       [gtr 1] 


                                                                                     


       |2--------2---3---3------|------------------------
       |3--------3---3---3------|------------------------
       |2--------2---0---0------|-----2------------------
       |0--------0---0---0------|0-----------0-----------
       |-------------2---2------|-------------3-2-0------
       |------------------------|------------------3^-0--







       |B           F#        |B


For all things that need to be done


       [gtr 1] 


                                                                                     


       |2--------2--5---5-----|2----------------------
       |3--------3--5---5-----|3----------------------
       |2--------2--2---2-----|2----2-----------------
       |0--------0--2---2-----|0----------0-----------
       |------------0---0-----|-------------3-2-0-----
       |----------------------|------------------3^-0-







          |B              E/B     |B


Or you can spend all your life not thinking


          [gtr 1] 


                                                                                     


          |2--------------3---3---|2----------------------
          |3--------------3---3---|3----------------------
          |2--------------0---0---|2----------------------
          |0--------------0---0---|0----------0-----------
          |---------------2---2---|-------------3-2-0-----
          |-----------------------|------------------3^-0-







     |F#     E         |B               |    |


Never ending what you begun


     [gtr 1] 


                                                                                     


     |-------3----3----|2---------------|2---|2---
     |-------3----3----|3-----------3-3-|3---|3---
     |14-----0----0----|2-----------2-2-|2---|2---
     |14-----0----0----|0-----------0-0-|0--0|0---
     |12---0-----------|----2p0---------|----|----
     |-----------------|-------3^0------|----|----


Important: The song above is NOT stored on the Chordie server. The original song is hosted at www.thewho.net. Chordie works as a search engine and provides on-the-fly formatting. Chordie does not index songs against artists/composers will. To remove this song please click here.

This song is displayed as text-only. Transposing and tuning is only available for chordpro-songs.

Login - add to songbook

Rating click stars to rate

Layout
Accuracy

SHARE PAGE  




You need to log in to post comments