eToCache5 = ""; ?> I Can See For Miles (Bass) by Who - guitar chords, guitar tabs and lyrics - chordie

I Can See For Miles (Bass)

Who



 EEG/EA/E
|----------------|----------------|----------------|----------------|
|----------------|----------------|----------------|----------------|
|7-7-7-7-7-7-7-7-|7-7-7-7-7-7-7-7-|7-7-7-7-7-7-7-7-|7-7-7-7-7-7-7-7-|
|----------------|----------------|----------------|----------------|

 EG/EA/EEG/EA/E
                                 I know...  
|----------------|----------------|----------------|----------------|
|----------------|----------------|----------------|----------------|
|7-7-7-7-7-7-7-7-|7-7-7-7-7-7-7-7-|7-7-7-7-7-7-7-7-|7-7-7-7-7-7-7-7-|
|----------------|----------------|----------------|----------------|

 EG/EA/EEG/EA/E
|----------------|----------------|----------------|----------------|
|----------------|----------------|----------------|----------------|
|7-7-7-7-7-7-7-7-|7-7-7-7-7-7-7-7-|7-7-7-7-7-7-7-7-|7-7-7-7-7-7-7-7-|
|----------------|----------------|----------------|----------------|

 EG6/EAsus2/E
                     I can see for miles        and miles        and
|----------------|----------------|----------------|----------------|
|----------------|----------------|----------------|----------------|
|7-7-7-7-7-7-7-7-|7-7-7-7-7-7-7-7-|7-7-7-7-7-7-7-7-|7-7-7-7-7-7-7-7-|
|----------------|----------------|----------------|----------------|

 Cmaj7/EDsus2/EE
 miles        and miles        and miles                    oh yeah
|----------------|----------------|----------------|----------------|
|----------------|----------------|----------------|----------------|
|7-7-7-7-7-7-7-7-|7-7-7-7-7-7-7-7-|7-7-7-7-7-7-7-7-|7-7-7-7-7-7-7-7-|
|----------------|----------------|----------------|----------------|

 EE
|----------------|----------------| (repeat)
|----------------|----------------|
|7-7-7-7-7-7-7-7-|7-7-7-7-7-7-7-7-|
|----------------|----------------|

Well here's a
 ABAB
 poke at...                                I can see for
|-------|-------|------|---------------|----------------|
|7------|9------|7-----|9--9-9-9-9-9-9-|9-9-9-9-9-9-9-9-|
|-------|-------|------|---------------|----------------|
|-------|-------|------|---------------|----------------|

 ABEABE
 miles  and     miles...                       I can see for...
|---6-9---8-11-|---7-6-------|--6-9---8-11-|--9-7-6-------|
|7------9------|-------9-7-7-|7-----9------|--------9-7-6-|
|--------------|7------------|-------------|7-------------|
|--------------|-------------|-------------|--------------|

 G6/EAsus2/ECmaj7/EAsus2/E
 miles        and miles        and miles        and miles        and
|----------------|----------------|----------------|----------------|
|----------------|----------------|----------------|----------------|
|7---7-7-7-7-7-7-|7---7-7-7-7-7-7-|7---7-7-7-7-7-7-|7---7-7-7-7-7-7-|
|----------------|----------------|----------------|----------------|

 E
 miles                    oh yeah
|----------------|----------------|----------------|----------------|
|----------------|----------------|----------------|----------------|
|7-7-7-7-7-7-7-7-|7-7-7-7-7-7-7-7-|7-7-7-7-7-7-7-7-|7-7-7-7-7-7-7-7-|
|----------------|----------------|----------------|----------------|

(repeat verse)
That you
 ABAB
 still want me...                                   I can see for
|---------------|-------|------|----------------|----------------|
|7--------------|9------|7-----|9-9-9-9-9-9-9-9-|9-9-9-9-9-9-9-7-|
|---------------|-------|------|----------------|----------------|
|---------------|-------|------|----------------|----------------|

 ABEABE
|---6-9---8-11-|---9-7--6----|--6-9---8-11-|--9-7-6-------|
|7------9------|---------7-7-|7-----9------|--------9-7-7-|
|--------------|7------------|-------------|7-------------|
|--------------|-------------|-------------|--------------|

 G6/EAsus2/ECmaj7/EAsus2/E
 miles        and miles        and miles        and miles        and
|----------------|----------------|----------------|----------------|
|----------------|----------------|----------------|----------------|
|7---7-7-7-7-7-7-|7---7-7-7-7-7-7-|7---7-7-7-7-7-7-|7---7-7-7-7-7-7-|
|----------------|----------------|----------------|----------------|

 E
 miles                    oh yeah
|----------------|----------------|----------------|----------------|
|----------------|----------------|----------------|----------------|
|7-7-7-7-7-7-7-7-|7-7-7-7-7-7-7-7-|7-7-7-7-7-7-7-7-|7-7-7-7-7-7-7-7-|
|----------------|----------------|----------------|----------------|

(solo: repeat verse pattern)
(repeat verse)
The
 Am7C/AD/AAC/AD/A
 Eiffel Tower and the...    
|----------------|----------------|----------------|----------------|
|7-7-7-7-7-7-7-7-|7-7-7-7-7-7-7-7-|7-7-7-7-7-7-7-7-|7-7-7-7-7-7-7-7-|
|----------------|----------------|----------------|----------------|
|----------------|----------------|----------------|----------------|

 AC/AD/AA
                                                       Well, here's a
|----------------|----------------|----------------|----------------|
|7-7-7-7-7-7-7-7-|7-7-7-7-7-7-7-7-|7---7-7-7-7-7-7-|7-7-7-7-7-7-7-7-|
|----------------|----------------|----------------|----------------|
|----------------|----------------|----------------|----------------|

 DEDE
 poke at you...                                I can see for
|7----------|------|7-----|----------------|----------------|
|-----------|------|------|----------------|------------7-7-|
|-----------|------|------|----------------|----------------|
|-----------|0-----|------|0-0-0-0-0-0-0-0-|0-0-0-0-0-0-----|

 DEADEA
 miles and... miles...                       I can see for
|------------|--6-9---------|------------|---6-9---------|
|--4-7---6-9-|7-----7-7-7-9-|--4-7---6-9-|7------7-6---6-|
|5-----7-----|--------------|5-----7-----|-----------9---|
|------------|--------------|------------|---------------|

 C/AD/AF/AG/A
 miles        and miles      and miles       and miles       and
|----------------|--------------|---------------|---------------|
|7-7-7---7-7-7-7-|7--7--7-7-7-7-|7--7-7-7-7-7-7-|7-7-7--7-7-7-7-|
|----------------|--------------|---------------|---------------|
|----------------|--------------|---------------|---------------|

 G/AG/AG/AG/A
 miles        and miles        and miles        and miles        and
|----------------|----------------|----------------|----------------|
|7-7-7-7-7-7-7-7-|7-7-7-7-7-7-7-7-|7-7-7-7-7-7-7-7-|7-7-7-7-7-7-7-7-|
|----------------|----------------|----------------|----------------|
|----------------|----------------|----------------|----------------|

 A
 miles                                                 I can see for
|----------------|----------------|----------------|----------------|
|7-7-7-7-7-7-7-7-|7-7-7-7-7-7-7-7-|7-7-7-7-7-7-7-7-|7-7-7-7-7-7-7-7-|
|----------------|----------------|----------------|----------------|
|----------------|----------------|----------------|----------------|

(fade)
 DEADEA
 miles and... miles   
|------------|--6-9---6-9-6--|------------|--6-9---6-9-6--|
|--4-7---6-9-|7-----7-------7|--4-7---6-9-|7-----7-------7|
|5-----7-----|---------------|5-----7-----|---------------|
|------------|---------------|------------|---------------|

 DEADEA
|------------|--6-9---6-9-6--|------------|--6-9---6-9-6--|
|------------|7-----7-------7|--4-7---6-9-|7-----7-------7|
|0---0-5-7---|---------------|5-----7-----|---------------|
|------------|---------------|------------|---------------|
|------------|--6-9---6-9-6--|
|--4-7---6-9-|7-----7-------7|
|5-----7-----|---------------|
|------------|---------------|




A A/E Am7 Asus2/E B Cmaj7/E D Dsus2/E E G/E G6/E
variations - click chord images
Transpose chords:
Tuning:
Cool service:
View: Size:
A  A  A
Rating:
Layout:
  • Currently 2.8/5 Stars.
  • 1
  • 2
  • 3
  • 4
  • 5
 
Accuracy:
  • Currently 2.5/5 Stars.
  • 1
  • 2
  • 3
  • 4
  • 5
 
click stars to rate
Chordie recommends:
Learn how to play guitar at JamPlay.com
Songbook:
Login to add this song to your songbook
Support the artist
Preview/buy this song
MSN Music
Why this non-profit ad?

 
login to add comments/video/corrections