I Can’t Explain

Who



 intro and main pattern
  x3
||:E D D |A E E :||
||----------|-----------||
||----------|-----------||
||.9----7-7-|2-----9-9--||
||.9----7-7-|2-----9-9--||
||-7----5-5-|0-----7-7--||
||----------|-----------||


||:E D D |A E E :||x3
Got a feeling inside
(Can't explain)
It's a certain kind
(Can't explain)
I feel hot and cold
(Can't explain)

|E D D |B E E |
Yeah, down in my soul, yeah
(Can't explain)

|E D D |A E E |
I said...
(Can't explain)

|E D D |A E |
I'm feeling good now, yeah, but...
(Can't explain)

|E D D |A E E |
Dizzy in the head and I'm feeling blue
(Ooh Ooh Ooh Ooh...)
|-----------------------|5-----------------|
|-----------------------|5-----------------|
|9------------7-7-------|2-----------9-9---|
|9------------7-7-------|2-----------9-9---|
|7------------5-5-------|0-----------7-7---|
|-----------------------|------------------|


|E D D |A E E |
The things you've said, well, maybe they're true
---|-------------------------|5-------------------|
---|-------------------------|5-------------------|
-x-|9-------------7-7--------|2-------------9-9---|
-x-|9-------------7-7--------|2-------------9-9---|
-x-|7-------------5-5-------0|0-------------7-7---|
---|-------------------------|--------------------|


|E D |A E |
I'm gettin' funny dreams again and again
---|---------------------|5--------------------|
---|---------------------|5--------------------|
---|9-------------7-7----|2---------9-9--------|
---|9-------------7-7----|2-------x-9-9--------|
---|7-----------7-5-5----|0-------x-7-7--------|
---|---------------------|---------------------|


|E D B | |
I know what it means, but...
(Ooh Ooh Ooh )
-|-----------------------|---------------|
-|-----------------------|---------------|
-|9------------7------4--|---------------|
-|9------------7------4--|---------------|
-|7------------5------2--|---------------|
-|-----------------------|---------------|


 cborus
|E |C#m |A (Asus4 A) |B (Bsus4 B) |
Can't explain, I think it's love, try to say it to you when I feel blue,(but I)
|---0----0-------|-----------------------|-------------------|------------------|
|---0----0-------|-----------5-----------|--5-5-5---5-5------|--7-7-7---7-7-----|
|---1----1-------|------6----6-----------|--7-7-6---7-6------|--9-9-8---9-8-----|
|2-------2---2---|------6----6-----------|7-7-7-7-7-7-7-77---|9-9-9-9-9-9-9-9\--|
|2-------2---2---|4(t)--4----4-----------|-------------------|------------------|
|0-------0-----0-|-----------------------|-------------------|------------------|


|E D D |A E E |
But I can't explain
( Ooh Ooh, Can't explain)

|E D D |A E E |
Yeah, you hear what I'm saying, girl
( Ooh Ooh, Can't explain)
 solo 1
|E D |A E |E D |A E |
|----4---------|-----------------|--------------|--------------------|
|0---0-------2-|----2-2----------|--3-3-3--2-2--|--------------------|
|2/4---4/2-0-2-|2---2-2----------|2-4-4-4--2-2--|2-------------------|
|----------0-2-|2---2-----0-0/0--|2-------------|2p0--------0---2p0--|
|--------------|0-------2------2-|2-------------|----2-0--2---2----2-|
|--------------|-----------------|--------------|--------------------|

Dizzy in the head and I'm feeling bad
The things you said have got me real mad
I'm gettin' funny dreams again and again
I know what it means but...
|E D D |A E E |
Dizzy in the head and I'm feeling bad
(Ooh Ooh Ooh Ooh...)
|-----------------------|------------------|
|-----------------------|------------------|
|---------------7-------|14----------9-9---|
|---2-----------7-------|14----------9-9---|
|---2---------5-5-------|12--------7-7-7---|
|0----------------------|------------------|

|E D D |A E E |
The things you've said have got me real mad
---|-----------------------|------------------|
---|-----------------------|------------------|
-x-|9-------------7-7------|14----------9-9---|
-x-|9-------------7-7------|14----------9-9---|
-x-|7-----------x-5-5------|12----------7-7---|
---|-----------------------|------------------|

|E D |A E |
I'm gettin' funny dreams again and again
---|---------------------|---------------------|
---|---------------------|---------------------|
---|9-------------7-7----|2---------9-9--------|
---|9-------------7-7----|2-------x-9-9--------|
---|7-------------5-5----|0-------x-7-7--------|
---|---------------------|---------------------|

|E D B | |
I know what it means, but...
(Ooh Ooh Ooh )
-|-----------------------|---------------|
-|-----------------------|---------------|
x|9------------7------4--|---------------|
x|9------------7------4--|---------------|
x|7------------5------2--|---------------|
-|-----------------------|---------------|

 repeat cborus
|E |C#m |A |B |
Can't explain, I think it's love, try to say it to you when I feel blue, but I
|----------------|-----------------------|-------------------|------------------|
|----------------|5----------------------|----5h7p5-----0----|------------------|
|1-------1-------|6----------6-----------|--6-6-----6-6------|----8--h9-9-8-----|
|2-------2-------|6----------6---6-6--6--|7-7-7-----7-7---7--|9-9---9-9-9-9-9---|
|2-------2----4--|4(t)-------4---4-4--4--|-------------------|------------------|
|0-----0-0------0|-----------------------|-------------------|------------------|

But I can't explain
( Ooh, Ooh Can't explain)
Forgive me one more time now, yeah, yeah, yeah, yeah
( Ooh, Ooh Can't explain)
 solo 2
E D |A E |E D |A D |
|---0---------|-------------|------------|------------------|
|-------------|-------3-3-3-|3-3-3-3-3-3-|3-----------------|
|----4\2-0----|---0---4-4-4-|4-4-4-4-4-4-|4-2p0-------------|
|0h2------2-0-|2----2-2-2-2-|2-2-2-2-2-2-|2----2-0h2p0------|
|-------------|-------------|------------|------------2-0---|
|-------------|-------------|------------|---------------3^-|

|E D |A E |E D |A E |
|-0---0-0-0-|--0---0----0---0|----3------------------|--------------|
|-5---0-0-0-|--0---0-3/5-3/5-|3/5---0-3-0------------|0-------------|
|-4--/11----|2/4-2/4---------|----------0-2-2/4------|0-2-2---------|
|-----------|----------------|------------------0-2-2|0-2-2-4-4-6-0-|
|-----------|----------------|-----------------------|------2-2-4-0-|
|0----------|----------------|-----------------------|--------------|

 outro
|E D D |A E E |
I said I can't explain, yeah
(Ooh, Ooh, can't explain)
|----------------|-------------------|
|----------------|-------------------|
|-----7-7--------|2-------9-9--------|
|9----7-7--------|2-----x-9-9--------|
|7----5-5--------|0-----x-7-7--------|
|----------------|-------------------|

|E D D |A E E |
You drive me outta my mind
(Ooh, Ooh, can't explain)
|---------------------|--------------------|
|---------------------|--------------------|
|9----7-7-------------|2--------9-9--------|
|9----7-7-------------|2------x-9-9--------|
|7----5-5-------------|0------x-7-7--------|
|---------------------|--------------------|

|E D D |A E E |
Hey, I'm the worrying kind, babe
(Ooh, Ooh, can't explain)
|--------------------|--------------------|
|--------------------|--------------------|
|9----7-7------------|2--------9-9--------|
|9----7-7------------|2------x-9-9--------|
|7--5-5-5------------|0------x-7-7-------7|
|--------------------|--------------------|

 2/44/4
|E D D |A |E |
I said I can't explain
(Ooh, Ooh, can't explain)
|--------------------|-------|0-----------|
|--------------------|-------|0-----------|
|9----7-7------------|2------|1-----------|
|9----7-7------------|2------|2-----------|
|7--5-5-5------------|0------|2-----------|
|--------------------|-------|0-----------|

=============
litgo@aol.com



variations - click chord images
Transpose chords:
Tuning:
Cool service:
View: Size:
A  A  A
Rating:
Layout:
  • Currently 0/5 Stars.
  • 1
  • 2
  • 3
  • 4
  • 5
 
Accuracy:
  • Currently 2.8/5 Stars.
  • 1
  • 2
  • 3
  • 4
  • 5
 
click stars to rate
Chordie recommends:
Learn how to play guitar at JamPlay.com
Songbook:
Login to add this song to your songbook
Support the artist
Preview/buy this song
MSN Music
Why this non-profit ad?

 
login to add comments/video/corrections