Chordie logo

Lubie (Come Back Home)  Who





















[D7]I, [D7/A]     I [D7]left my [D7/A]wife and [D7]child (Lubie, [D7/A]come back [D7]home)[D7/A]
[A]And [C]lord,[C#] my [D]con[D7]scie[A]nce[C] is[D)D7] about to[A] dr[C]ive[C#] me [D]wild[D7] (L[A]ubi[C]e,[C#] com[D7]e back home),
A little voice inside my head goes on and on (Lubie, come back home)
D7 D9 D7....
Said, Lubie Lubie, you better go back home
I said, I, I thought I'd make it by myself (Lubie, come back home)
And now my baby, she got my heart dropped on a shelf (Lubie, come back home)
I said, I, I still you're my baby now (Lubie, come back home)
Said, Lubie Lubie, you better go back home
You better go on [G7]home (Lubie, come back home)
I said, yeah Lubie go on [D7]home (Lubie, come back home)
I said, you better go [A7]home girl[G7], ahh yeah, you go[D7] home
(palm mute)
| D D D G G G | D7 D7 D7 G G G |
|---5-5--5---7-7-7--|-8--8--8---7-7-7-|
|---7-7--7---8-8-8--|-10-10-10--8-8-8-|
|---7-7--7---7-7-7--|-7--7--7---7-7-7-|
|-------------------|-----------------|
|-------------------|-----------------|
|-------------------|-----------------|

[D7]Go on home (home) home (home) home (home)
Yeah Lubie go on home (home) home (home) home (home)
Yeah Lubie go on home (home) home (home) home (home)
Little bit [D]soft, everybody go soft,
Go on home to see my baby,
Yeah, you know that she loves you daddy like crazy
I say my misses I'm gonna stay what I'm gonna do
Gonna buy you a monkey and a new dog too, yeah
The guys have got, yeah, to get 'em to see my baby
A little bit louder, everybody go on go louder
D7 |G7 | G7 |
Baby, yeah yeah yeah
|D7 |D7 |G7 |
|---10-----------|---------------------|------------------------|
|-----13^\-10----|------15---10----10--|---10----10--10---10----|
|----------------|-12/14---13^---13^---|-13^---13^-13^--13^--13^|
|-------------12-|---------------------|------------------------|
|----------------|---------------------|------------------------|
|----------------|---------------------|------------------------|

Now Lubie where you been
|G7 | A7 A7 D7 D7 |(E7 E7 D7 D7 )
|---------------|--------------|------------------|

|------10--10---|-5--5---7--7--|-10----8----------|
|-10^--10--10---|-6--6---7--7--|---12^~--7~-5-----|
|----12--12--12-|-7--7---7--7--|------------------|
|---------------|--------------|--------------0-3-|
|---------------|--------------|------------------|

I said, I, I left my wife and child (Lubie, come back home)
And lord my conscience is about to drive me wild (Lubie, come back home)
A little voice inside my head goes on and on (Lubie, come back home)
Said, Lubie Lubie, you better go back home
You better go on home (Lubie, go on home)
I said yeah, Lubie go on home (Lubie, go on home)
I said you better go home girl, ahh yeah, you go home
| D D D D\C | D D D D\C |
|------------|-----------|
|--7-7-7-7\5-|-7-7-7-7\5-|
|--7-7-7-7\5-|-7-7-7-7\5-|
|--7-7-7-7\5-|-7-7-7-7\5-|
|------------|-----------|
|------------|-----------|

Go on home (home) home (home) home (home)
Yeah, Lubie go home (home) home (home) home (home)
Yeah, Lubie go home (home) home (home) home (home)
Yeah, Lubie go home (home) (home) (home)
=============
litgo@aol.com



Important: The song above is NOT stored on the Chordie server. The original song is hosted at www.thewho.net. Chordie works as a search engine and provides on-the-fly formatting. Chordie does not index songs against artists/composers will. To remove this song please click here.

A A7 C C# D D7 G7
variations - click chord images

Login - add to songbook

Transpose chords

Tuning

Rating click stars to rate

Layout
Accuracy

SHARE PAGE  

You need to log in to post comments