"yes"; ?> Magic Bus by Who - guitar chords, guitar tabs and lyrics - chordie

Magic Bus

Who



 intro pattern
| A | | G/D D |
 gtr 1
|                                               |
|--------|----------|----------------------7--7--------|
|--------|----------|----------------------8--8--7-7---|
|--------|----------|--------9-9-9-9-------7--7--7-7---|
|-7---7--|7---------|--------7-7-7-7-------5--5--7-7---|
|-7---7--|7---------|--------7-7-7-7-------5--5--5-5---|
|-5---5--|5---8^----|--8^----5-5-5-5-------------------|

 gtr 2
|                                               |
|--------|----------|----------------------7--7--------|
|--------|----------|----------------------8--8--7-7---|
|--------|----------|------------9-9-------7--7--7-7---|
|--------|----------|------------7-7-------5--5--7-7---|
|--------|----7--7--|------------7-7-------5--5--5-5---|
|--------|----5--5--|------------5-5-------------------|


|A |C D |A |C G/D |
 gtr 1
|                                                            |
|----5--5----5---5---|8-8-8-------|----5-----5---5---|8-8-8-8--7--7-|
|----5--5----5---5---|8-8-8--7--7-|----5-----5---5---|8-8-8-8--8--8-|
|----9--9----9---9---|5-5-5--7--7-|----9-----9---9---|5-5-5-5--7--7-|
|----7--7----7---7---|5-5-5--7--7-|----7-----7---7---|5-5-5-5--5--5-|
|----7--7----7---7---|-------5--5-|----7-----7---7---|---------5--5-|
|5-5-5--5----5---5---|8-8-8-------|5-5-5-----5---5---|8-8-8-8-------|

 gtr 2
|                                                            |
|----5--5----5---5---|8-8-8-------|----5-----5---5---|8-8-8-8--7--7-|
|----5--5----5---5---|8-8-8--7--7-|----5-----5---5---|8-8-8-8--8--8-|
|----9--9----9---9---|5-5-5--7--7-|----9-----9---9---|5-5-5-5--7--7-|
|----7--7----7---7---|5-5-5--7--7-|----7-----7---7---|5-5-5-5--5--5-|
|----7--7----7---7---|-------5--5-|----7-----7---7---|---------5--5-|
|5-5-5--5----5---5---|8-8-8-------|5-5-5-----5---5---|8-8-8-8-------|


|A | |A C| G/D Dsus4 D|
 gtr 1
|                                                              |
|--------------------|------------|--5-5-5-5--------8|--8--7----------|
|--------------------|------------|--5-5-5-5--------8|--8--8---8p7-7--|
|--------------------|------------|--9-9-9-9--------5|--5--7---7---7--|
|-----7-7--7-7-7-----|------------|--7-7-7-7--------5|--5--5---7---7--|
|-----7-7--7-7-7-----|------------|--7-7-7-7---------|-----5---5---5--|
|5-5--5-5--5-5-5--8^-|--5-8^-8^-8^|5-5-5-5-5--------8|--8------5---5--|

 gtr 2
|                                                              |
|----5--5----5---5---|8-8-8-------|----5-----5---5---|8-8-8-8--7---7--|
|----5--5----5---5---|8-8-8--7--7-|----5-----5---5---|8-8-8-8--8---8--|
|----9--9----9---9---|5-5-5--7--7-|----9-----9---9---|5-5-5-5--7---7--|
|----7--7----7---7---|5-5-5--7--7-|----7-----7---7---|5-5-5-5--5---5--|
|----7--7----7---7---|-------5--5-|----7-----7---7---|---------5---5--|
|5-5-5--5----5---5---|8-8-8-------|5-5-5-----5---5---|8-8-8-8---------|


|A |C G/D |
 gtr 1
|                         |
|----5--5----5---5--|8-8-8--7--7-|
|----5--5----5---5--|8-8-8--8--8-|
|----9--9----9---9--|5-5-5--7--7-|
|----7--7----7---7--|5-5-5--5--5-|
|----7--7----7---7--|-------5--5-|
|5-5-5--5----5---5--|8-8-8-------|

| |
|----5--5----5---5--|8-8-8--7--7-|
|----5--5----5---5--|8-8-8--8--8-|
|----9--9----9---9--|5-5-5--7--7-|
|----7--7----7---7--|5-5-5--5--5-|
|----7--7----7---7--|-------5--5-|
|5-5-5--5----5---5--|8-8-8-------|


 verse

|A |C G/D D |A |G/D D |
Every day I get in the queue
(Too much, the Magic Bus)

|A |C G/D D|A |G/D D |
To get on the bus that takes me to you
(Too much, the Magic Bus)

|A |G/D D |A |G/D D |
I'm so nervous, I just sit and smile
(Too much, the Magic Bus)

|A |G/D Dsus4 D |A |G/D D |
Your house is only another mi----le
(Too much, the Magic Bus)

 verse 2
I thank you, driver, for getting me here (Too much, the Magic Bus)
You'll be an inspector, have no fear (Too much, the Magic Bus)
I don't want to cause no fuss (Too much, the Magic Bus)
But can I buy your Magic Bus? (Too much, the Magic Bus)

No!

 interlude

 gtr 1
|                                                            |
|------|-------|---------|-------------|-------------8|5-5-5--------|
|------|-------|---------|-------------|----------10--|-------7-----|
|------|-------|---------|-------------|--------------|-------7--7--|
|------|-------|-7-----7-|--7-5--------|--------------|----------7--|
|------|-------|---------|------5-7^-5-|--------------|----------5--|
|xxxxxx|xxxxxx-|5----5---|5------------|8^-5----------|-------------|


|A | |C G/D |
 gtr 1
|                                        |
|-------|----------|--------------|8-8--7-7-7-7-|
|-------|----------|--------------|8-8--8-8-8-8-|
|-------|----------|--------------|5-5--7-7-7-7-|
|7------|--x---x-x-|----7--7-7-7--|5-5--5-5-5-5-|
|7------|--x---x-x-|----7--7-7-7--|-----5-5-5-5-|
|5------|x-x-x-x-x-|5-5-5--5-5-5--|8-8----------|


|A |G/D D |A |G/D D |
I don't care how much I pay (Too much, the Magic Bus)

|A |G/D Dsus4 D |A |G/D D |
I wanna drive my bus to my baby each day (Too much, the Magic Bus)

|A |G/D D |A |G/D Dsus4 D|A |

 3/4
| | | | | | |
I want it, I want it, I want it, I want it ...
(Now, you can't have it!)

 4/4
| A | A/C A | |
...want it... Thruppence and sixpence every day
 gtr 1
| 
|---------|------------|---------------------------------------|
|---------|------------|-----------------------------------x-x-|
|---------|------------|-----------------------------------x-x-|
|---7--7--|7--x-7--7---|-----------------------------------x-x-|
|---7--7--|7--x-7--7---|-----------------------------------x-x-|
|---5--5--|5--5-8^-5---|---------------------------------------|


| A | A/C A | |
Just to drive to my baby
 gtr 1
|                                                          |
|---------|-------------|-----------------------------------------|
|---------|-------------|--------------------------------x---x----|
|---------|-------------|--------------------------------x---x----|
|---7--7--|7-x------7---|--------------------------------x---x----|
|---7--7--|7-x------7---|------------------------------x-x-x-x----|
|---5--5--|5-x-5-8^-5---|-----------------------------------------|

 gtr 2
|                                                          |
|---------|-------------|-----------------------------------------|
|---------|-------------|-----------------------------------------|
|---------|-------------|-----------------------------------------|
|---7--7--|7-x------7---|-----------------------------------------|
|---7--7--|7-x------7---|-----------------------------------------|
|---5--5--|5-x-5-8^-5---|-----------------------------------------|


| A | A/C A | |
Thruppence and sixpence each day
 gtr 1
|                                                            |
|-------------|-------------|---------------------------------------|
|-------------|-------------|------------------------------------x--|
|-------------|------------x|x-----------------------------------x--|
|---7--x-7--x-|7-x------7--x|x-----------------------------------x--|
|---7--x-7--x-|7-x------7--x|x-----------------------------------x--|
|---5--x-5--x-|5-x-5-8^-5---|---------------------------------------|

 gtr 2
|                                                            |
|-------------|-------------|---------------------------------------|
|-------------|-------------|---------------------------------------|
|-------------|-------------|---------------------------------------|
|---7----7----|7-x------7---|---------------------------------------|
|---7----7----|7-x------7---|---------------------------------------|
|---5----5----|5-x-5-8^-5---|---------------------------------------|


| A D | A7 D | A D | A7 D |
'Cause I drive my baby every way
(Too much the ma...)
|gtr 1] |
|--------------|------------|--------------|------------|
|--5-5----7-7--|--8-8--7-7--|--5-5----7-7--|--8-8--7-7--|
|--6-6----7-7--|--9-9--7-7--|--6-6----7-7--|--9-9--7-7--|
|--7-7----7-7--|--7-7--7-7--|--7-7----7-7--|--7-7--7-7--|
|--------------|------5-----|--------------|------------|
|--------------|------------|--------------|------------|

 gtr 2
|                                                |
|--------------|------------|--------------|------------|
|--------------|--8-8-x-7-7-|--------------|--8-8-x-7-7-|
|---------7----|x-9-9-x-7-7-|---------7----|x-9-9-x-7-7-|
|--7----x-7----|x-7-7-x-7-7-|--7-7-7x-7----|x-7-7-x-7-7-|
|--7----x-5----|x-----------|--7-7-7x-5----|x-----------|
|--5----x------|------------|--5-5-5x------|------------|


|A D |A7 |A |C G/D |
Magic Bus (Magic Bus)
 gtr 1
|                                                      |
|-------------|------------|-----------|8-8-8-8-8-8-7-7-7-7---|
|--5-----7-7-7|8-8-8-8-----|--5--5-5-5-|8-8-8-8-8-8-8-8-8-8---|
|--9-----7-7-7|9-9-9-9-----|--9--9-9-9-|5-5-5-5-5-5-7-7-7-7---|
|--7-7-7-7-7-7|7-7-7-7-----|--7--7-7-7-|5-5-5-5-5-5-5-5-5-5---|
|--7-7-7-5-5-5|------------|--7--7-7-7-|----------------------|
|5------------|------------|5----------|8-8-8-8-8-8-----------|

 gtr 2
|                                                      |
|-------------|------------|5-5---5-5--|8-8-8-----------------|
|--5-----7-7-7|8-8-8--7----|5-5---5-5--|8-8-8------8p7--7-----|
|9-9-----7-7-7|9-9-9--7----|9-9---9-9--|5-5-5------7----7-----|
|7-7-----7-7-7|7-7-7--7----|7-7---7-7--|5-5-5------7----7-----|
|7-7-----5-5-5|-------5----|7-7---7-7--|-----------5----5-----|
|5-5----------|------------|5-5---5-5--|8-8-8------5----5-----|

 gtr 3
|                                                      |
|-------------|------------|-----------|----------------------|
|-------------|------------|-----------|----------------------|
|-------------|------------|-----------|----------------------|
|-------------|------------|-----------|----------------------|
|-------------|------------|0----------|----------------------|
|-------------|---------3^-|-----------|-------------------3^-|


|A |C Dsus4 D |A | G/D D |
Magic Bus (Magic Bus) Magic Bus (Whoa )
 gtr 1
|                           |                            |
|5-5---5-5--|8-8-8-----------------|--5-5-5-5---|-7-7-7---------|
|5-5---5-5--|8-8-8------8p7--7-----|--5-5-5-5---|-8-8-8--7---7--|
|9-9---9-9--|5-5-5------7----7-----|--9-9-9-9---|-7-7-7--7---7--|
|7-7---7-7--|5-5-5------7----7-----|--7-7-7-7---|-5-5-5--7---7--|
|7-7---7-7--|-----------5----5-----|--7-7-7-7---|-5-5-5--5---5--|
|5-5---5-5--|8-8-8------5----5-----|5-5-5-5-5---|---------------|

 gtr 2
|                                                        |
|5-5---5-5--|8-8-8-----------------|----5---5-5-|8-8-8-8--------|
|5-5---5-5--|8-8-8------8p7--7-----|----5---5-5-|8-8-8-8-8p7-7--|
|9-9---9-9--|5-5-5------7----7-----|----9---9-9-|5-5-5-5-7---7--|
|7-7---7-7--|5-5-5------7----7-----|----7---7-7-|5-5-5-5-7---7--|
|7-7---7-7--|-----------5----5-----|----7---7-7-|--------5---5--|
|5-5---5-5--|8-8-8------5----5-----|5-5-5---5-5-|8-8-8-8-5---5--|

 gtr 3
|                                                        |
|-----------|----------------------|------------|---------------|
|-----------|----------------------|------------|---------------|
|-----------|----------------------|------------|---------------|
|-----------|----------------------|------------|---------------|
|0----------|----------------------|0-----------|---------------|
|-----------|-------------------3^-|------------|------------3^-|


|A | G/D D |A | G/D D |
Magic Bus (Whoa ) Magic Bus (Whoa )
 gtr 1
|                                                               |
|--5-5-5-5-------8|--7---7----------|--5-5-5-5-------|--7-7-7----------|
|--5-5-5-5-------8|--8---8---8p7-7--|--5-5-5-5-------|--8-8-8---7---7--|
|--9-9-9-9-------5|--7---7---7---7--|--9-9-9-9-------|--7-7-7---7---7--|
|--7-7-7-7-------5|--5---5---7---7--|--7-7-7-7-------|--5-5-5---7---7--|
|--7-7-7-7--------|--5---5---5---5--|--7-7-7-7-------|--5-5-5---5---5--|
|5-5-5-5-5-------8|----------5---5--|5-5-5-5-5-------|-----------------|

 gtr 2
|                                                               |
|--5-5-5-5--------|--7---7----------|--5-5-5-5-------|--7---7----------|
|--5-5-5-5--------|--8---8---8p7-7--|--5-5-5-5-------|--8---8---8p7-7--|
|--9-9-9-9--------|--7---7---7---7--|--9-9-9-9-------|--7---7---7---7--|
|--7-7-7-7--------|--5-5-5---7---7--|--7-7-7-7-------|--5-5-5---7---7--|
|--7-7-7-7--------|--5---5---5---5--|--7-7-7-7-------|--5---5---5---5--|
|5-5-5-5-5--------|----------5---5--|5-5-5-5-5-------|----------5---5--|

 gtr 3
|                                                               |
|-----------------|-----------------|----------------|-----------------|
|-----------------|-----------------|----------------|-----------------|
|-----------------|-----------------|----------------|-----------------|
|-----------------|-----------------|----------------|--------------0--|
|0----------------|-----------------|0---------------|-----------------|
|-----------------|--------------3^-|----------------|--------------3^-|


|A | G/D D |A | G/D D |
I want the Magic Bus I want the Magic Bus
(Magic Bus) (Magic Bus)
 gtr 1
|                           |                                  |
|--5-5-5-5-------|--7---7----------|--5-5-5-5-------|--7---7----------|
|--5-5-5-5-------|--8---8---7---7--|--5-5-5-5-------|--8---8---7---7--|
|--9-9-9-9-------|--7---7---7---7--|--9-9-9-9-------|--7---7---7---7--|
|--7-7-7-7-------|--5---5---7---7--|--7-7-7-7-------|--5---5---7---7--|
|--7-7-7-7-------|--5---5-5-5---5--|--7-7-7-7-------|--5---5-5-5---5--|
|5-5-5-5-5-------|-----------------|5-5-5-5-5-------|-----------------|

 gtr 2
|                           |                                  |
|--5-5-5-5-------|--7---7----------|--5-5-5-5-------|--7---7----------|
|--5-5-5-5-------|--8---8---8p7-7--|--5-5-5-5-------|--8---8---8p7-7--|
|--9-9-9-9-------|--7---7---7---7--|--9-9-9-9-------|--7---7---7---7--|
|--7-7-7-7-------|--5-5-5---7---7--|--7-7-7-7-------|--5-5-5---7---7--|
|--7-7-7-7-------|--5---5---5---5--|--7-7-7-7-------|--5---5---5---5--|
|5-5-5-5-5-------|----------5---5--|5-5-5-5-5-------|----------5---5--|

 gtr 3
|                                                              |
|----------------|-----------------|----------------|-----------------|
|----------------|-----------------|----------------|-----------------|
|----------------|-----------------|2---------------|-----------------|
|2---------------|-----------------|2---------------|-----------------|
|0---------------|-----------------|0---------------|-----------------|
|----------------|--------------3^-|----------------|--------------3^-|


|A | C G/D |A | C G/D |
 drums in
I want the Magic Bus I want the Magic Bus
(Magic Bus) (Magic Bus)
 gtr 1
|                           |                                  |
|--5-5-5-5-------8|--8---8---7---7-|--5-5-5-5------8|--8---8----7---7-|
|--5-5-5-5-------8|--8---8---8---8-|--5-5-5-5------8|--8---8----8---8-|
|--9-9-9-9-------5|--5---5---7---7-|--9-9-9-9------5|--5---5----7---7-|
|--7-7-7-7-------5|--5---5---5---5-|--7-7-7-7------5|--5---5----5---5-|
|--7-7-7-7--------|----------5---5-|--7-7-7-7-------|-----------5---5-|
|5-5-5-5-5-------8|--8^--8^-5------|5-5-5-5-5------8|--8---8--5-------|

 gtr 2
|                           |                                  |
|--5-5-5-5--------|--7---7---------|--5-5-5-5-------|--7---7----------|
|--5-5-5-5--------|--8---8---8p7-7-|--5-5-5-5-------|--8---8---8p7-7--|
|--9-9-9-9--------|--7---7---7---7-|--9-9-9-9-------|--7---7---7---7--|
|--7-7-7-7--------|--5-5-5---7---7-|--7-7-7-7-------|--5-5-5---7---7--|
|--7-7-7-7--------|--5---5---5---5-|--7-7-7-7-------|--5---5---5---5--|
|5-5-5-5-5--------|----------5---5-|5-5-5-5-5-------|----------5---5--|

 gtr 3
|                                                              |
|-----------------|----------------|----------------|-----------------|
|-----------------|-------------0--|----------------|-----------------|
|2----------------|-------------0--|2---------------|4^----4^--4^--2~-|
|2----------------|-------------0--|2---------------|-----------------|
|0----------------|----------------|0---------------|-----------------|
|-----------------|----------------|----------------|-----------------|


|A | C G/D |A | C G/D |
I said
(Magic Bus) (Magic Bus)
 gtr 1
|                           |                                  |
|--5-5-5-5------8|--8---8----7---7-|--5-5-5-5------8|--8---8----7---7-|
|--5-5-5-5------8|--8---8----8---8-|--5-5-5-5------8|--8---8----8---8-|
|--9-9-9-9------5|--5---5----7---7-|--9-9-9-9------5|--5---5----7---7-|
|--7-7-7-7------5|--5---5----5---5-|--7-7-7-7------5|--5---5----5---5-|
|--7-7-7-7-------|-----------5---5-|--7-7-7-7-------|-----------5---5-|
|5-5-5-5-5------8|--8---8--5-------|5-5-5-5-5------8|--8---8--5-------|

 gtr 2
|                                                              |
|--5-5-5-5-------|--7---7----------|--5-5-5-5-------|--7---7----------|
|--5-5-5-5-------|--8---8---8p7-7--|--5-5-5-5-------|--8---8---8p7-7--|
|--9-9-9-9-------|--7---7---7---7--|--9-9-9-9-------|--7---7---7---7--|
|--7-7-7-7-------|--5-5-5---7---7--|--7-7-7-7-------|--5-5-5---7---7--|
|--7-7-7-7-------|--5---5---5---5--|--7-7-7-7-------|--5---5---5---5--|
|5-5-5-5-5-------|----------5---5--|5-5-5-5-5-------|----------5---5--|

 gtr 3
|                                                              |
|-----------------|3^--------------|----------------|-----------------|
|-----------------|---3--1^--------|----------------|-----------------|
|2----------------|---------2-0----|----------------|-----------------|
|2----------------|-------------2--|----------------|-----------------|
|0----------------|----------------|0---------------|3^-0-3^-0-3^-0-3^|
|-----------------|----------------|----------------|-----------------|


|A |G/D D |A |G/D D |
Now I've got my Magic Bus (Too much, the Magic Bus)
 gtr 3
|                                           |
|---------------|----------|-------------|3-----2--|
|---------------|----------|-------------|3-----3--|
|---------------|----------|-------------|0-----2--|
|---------------|----------|-------------|0-----0--|
|0--------------|----------|-------------|---------|
|---------------|----------|3^(5)--------|---------|


|A |G/D D |A |G/D D |
I said, now I've got my Magic Bus (Too much, the Magic Bus)
 gtr 3
       |                                           |
       |---------------|--3---2---|-------------|-7-------|
       |---------------|--3---3---|-------------|-8-------|
       |---------------|--0---2---|-------------|-7-------|
       |---------------|-----0----|-------------|0--------|
       |------0--------|0---------|0------------|---------|
       |3^(5)----------|----------|-------------|---------|


|A |G/D D |A |G/D D |
I drive my baby every way (Too much, the Magic Bus)
 gtr 3
 |                                            |
 |---9-----------|--12-14-|---9--9------|---7-----2--|
 |---10----------|--13-15-|---10-10-----|---8-----3--|
 |---9-----------|--12-14-|---9--9------|---7-----2--|
 |---------------|--------|-------------|---------0--|
 |0--------------|-0--0---|0------------|-0-----0----|
 |---------------|--------|-------------|------------|


|A |G/D D |A |G/D D |
Each time I go a different way (Too much, the Magic Bus)
 gtr 3
    |                                           |
    |-----------|--------------|-------------|---------|
    |-----------|--------------|-------------|---------|
    |-----------|--------------|-------------|---------|
    |-----------|--------------|-------------|---------|
    |-----------|--------------|-------------|---------|
    |3^(5)------|--------------|3^(5)--------|---------|


|A |G/D D |A |G/D D |
I want it, I want it, I want it, I want it ...
(Magic Bus) (Magic Bus)

|A |G/D D |A |G/D D |
I want it, I want it, I want it, oh, baby, I want it, I want it ...
(Magic Bus) (Magic Bus) (Hey...)

|A |G/D D |A |G/D D |
Every day you'll see the dust (Too much, the Magic Bus)

|A |G/D D |A |G/D D |
As I drive my baby in my Magic Bus (Too much, the Magic Bus)
 gtr 2
    |                                                     |
    |-------------------|----------|-------------|---------------|
    |-------------------|----------|-------------|---------------|
    |-------------------|----------|-------------|---------------|
    |-7---7------7------|7-------7-|-7--7----7---|7--------------|
    |-7---7------7------|7-------7-|-7--7----7---|7-7--7--7-7--7-|
    |-5---5------5------|5--5-8^-5-|-5--5----5---|5-8^-8^-5-8^-5-|

 gtr 3
    |                                                     |
    |-------------------|----------|-------------|---------------|
    |-------------------|----------|-------------|---------------|
    |-------------------|----------|-------------|---------------|
    |-------------------|----------|-------------|---------------|
    |--------0----------|0---3^-0--|------0------|0-3^-0-0--3^-0-|
    |3^(5)------3^(5)---|----------|3^(5)---3^(5)|---------------|


|A |G/D D |A |G/D D |
(Magic Bus)
 gtr 2
    |                                                   |
    |-------------------|--8-------|-------------|7--7---------|
    |-------------------|--8---8-7-|-------------|8--8---7--7--|
    |-------------------|--5-5-7-7-|-------------|7--7---7--7--|
    |-------------------|--5-5-7-7-|7--7--7--7---|5--5---7--7--|
    |7---7------7-------|-----5-5--|7--7--7--7---|5--5-5-5--5--|
    |8^--8^--8^-5-------|8---------|5--5--5--5---|-------------|

 gtr 3
    |                                                   |
    |-------------------|----------|-------------|-------------|
    |-------------------|----------|-------------|-------------|
    |2------------------|----------|-------------|-------------|
    |2------------------|----------|-------------|-------------|
    |0------------------|---xxxxxxx|xxxxxxxxxxxxx|xxxxxxxxxxxx-|
    |-------------------|---xxxxxxx|xxxxxxxxxxxxx|xxxxxxxxxxxx-|


 Long version extra lyrics
Give me a hundred. I won't take under. It goes like thunder. It's a bus-age wonder.

You can't have it. Think how much you'll save. You can't have it.

=============
litgo@aol.com




variations - click chord images
Transpose chords:
Tuning:
Cool service:
View: Size:
A  A  A
Rating:
Layout:
  • Currently 0/5 Stars.
  • 1
  • 2
  • 3
  • 4
  • 5
 
Accuracy:
  • Currently 2.8/5 Stars.
  • 1
  • 2
  • 3
  • 4
  • 5
 
click stars to rate
Chordie recommends:
Learn to play this song & others via video guitar lessons at JamPlay.com
Songbook:
Login to add this song to your songbook
Support the artist
Preview/buy this song
MSN Music
Why this non-profit ad?

 
login to add comments/video/corrections